TOO LONELY - NEIL YOUNG
-----------------------
from: LIFE


Submitted by: Aaron Lieber (lieber@hops.cs.jhu.edu)
(via HyperRust)

A    Asus4     Asus7                                  
G -2-----2----------2----                                
D -2-----4----------5----                                
A -0-----0----------0----                                
E -----------------------                                

INTRO:
A G D A                                                  

A Asus4 Asus7 Asus4 A                                    

too lonely too lonely too lonely to fall in love (2x)    
A   A      A   A      G         D       A            

i got a keychain.                                        
A  A     Asus4 Asus7 Asus4                       
good luck charm                                          
A    A    Asus4 Asus7 Asus4                         
drive a fast car                                         
A    A   Asus4 Asus7 Asus4                       
gotta strong arm                                         
A      A   Asus4 Asus7 Asus4                       

I'm too lonely too lonely too lonely to fall in love (2x)
A   A      A   A      G         D       A        

she got the big lips, she got the tight dress            
working for the big tip, won't go for less               

she's too lonely too lonely too lonely to fall in love   

SOLO:
E-->5-8-5--8-10-8-5----3-5-3------------------             
B---------------------------5-3-1-------------             
G--------------------------------4-2----------             
D------------------------------------5-2------             
A----------------------------------------5-3--             
E--------------------------------------------5             

E-->5-8-12-15-12-10---5-----------------------             
B----------------------8-5--------------------             
G--------------------------7-5-4--------------             
D--------------------------------7------------             

she wears a fur coat, she's got a gold ring                
come from a good home, lookin for a new thing              
she's too lonely too lonely too lonely to fall in love (2x)

E-12-8----8-10-8--------------                             
B------10--------10-8---------                             
G--------------------9-7------                             
D-----------------------10-9-7