THE WAYS OF LOVE - NEIL YOUNG
-----------------------------
from: FREEDOM


Submitted by: Malc Brookes (malc@malbro.demon.co.uk)
(via HyperRust)

Dropped-D tuning

CHORDS:
D         000232	G6/B      x20030
Dadd2add4 x54030	Fmaj   7  3x3210
Bb        X13331	C         x32010
D(II)     xxx775	A         xxx655
A9        xxx657

TAB 1: (for the intro, fills and verse)
D         G6/B       C             Dadd2add4
E|-----2---2-------0--0------0------0--------0----|
B|-----3---3-------3--3------1------1--------3----|
G|-----0h2---------0--0------0------0--------0----|
D|-----0------------------------0h2--------4---4--|
A|------------0h2--------0h3-----------3/5--------|
D|--0---------------------------------------------|

TAB 2: (for the chorus)
D(II)     A         D(II)     A      A9
E|-----5-5-5-----5-5-5-----5-5-5--5-5-5--7-7-7--|
B|-----7-7-7-----5-5-5-----7-7-7--5-5-5--5-5-5--|
G|-----7-7-7-----6-6-6-----7-7-7--6-6-6--6-6-6--|
D|----------------------------------------------|
A|------------0---------------------------------|
D|--0-------------------0-----------------------|

INTRO: Tab 1 * 4

VERSE: (Tab 1)
D    G6/B   C       Dadd2add4
You are my special one
D        G6/B       C      Dadd2add4
Made my heart come all un-done
D           G6/B   C        Dadd2add4
We've been havin' too much fun
F                                  Bb
Now someone else, will sleep with tears        C
When he hears, what we've done.

CHORUS: (Tab 2)
D(II)  A   D(II)  A    A9
D(II)  A   D(II)  A    A9

D(II)  A   D(II)  A    A9
Oh,           the ways of 
D(II)  A   D(II)  A    A9
love
D(II)  A   D(II)  A    A9
Oh,           the ways of 
D(II)  A   D(II)  A    A9
love.

FILL: Tab 1 * 4

VERSE:
Hear my song and hear my heart
We'll be gone when the music starts
Then we'll never be apart
Just you and I
Go flyin' by
No one to cry
That we're gone.

CHORUS:
Oh, the ways of love
Oh, the ways of love.

HARMONICA SOLO: Tab 1 * 10

VERSE:
You are my special one
Made my heart come all undone
We've been havin' too much fun
Now someone else
Will sleep with tears
When he hears
What we've done.

CHORUS:
Oh, the ways of love
Oh, the ways of love
Oh, the ways of love
Oh, the ways of love.

END: D G6/B