SURFER JOE AND MOE THE SLEAZE - NEIL YOUNG
------------------------------------------
from: RE*AC*TOR


Submitted by: Fredrik Johansson (fredrik.johansson@mailbox.hogia.net)

NOTE: RIFF #2 is variated in the song so just improvise on that one.
RIFF #3 is not exact, it's only what I think sounds good.

D  A (x8)

RIFF #1:
C    A    D    G G#
e----------|-----------|--
B----------|-----------|--
G--5-5-----|-7-7-------|--
D--5-5--7--|-7-7--5-6--|--
A--3-3--7--|-5-5--5-6--|--
E-------5--|------3-4--|--

RIFF #2:
A                           A
e---------------------------|--------------------
B---------3--1--3--1--------|--------1--3(bend)--
G--2--2---------------2--2--|--2--2-------------- (x2)
D--2--2---------------------|--2-----------------
A--0--0---------------------|--0-----------------
E---------------------------|--------------------

VERSE 1:
Am                   C/G
Here's a story 'bout Surfer Joe
D/F#
He caught the big one
F
But he let it go

RIFF #3:
F     F/E   F/G   F/E   E
e--1-1---1-1---1-1---1-1---0--
B--1-1---1-1---1-1---1-1---0--
G--2-2---2-2---0-0---2-2---1--
D--3-3---3-3---3-3---3-3---2--
A--3-3---3-3---3-3---3-3---2--
E--1-1---0-0---0-0---0-0---0--

F           F/E             \
There's somebody             |__RIFF #3
F/G   F/E      E             |
Satisfied with winning      /

VERSE 2:
Back on the boardwalk
There's Moe the Sleaze
Seels good things
And aims to please
He's almost even
But he doesn't mind a handout

CHORUS:
D       A          D             A
Come on down for a pleasure cruise
D         A          D           A
We're all going on a pleasure cruise
D       A              D       A
Come on down for a pleasure cruise
D         A      D         A
Plenty of women, plenty of booze

RIFF #1
RIFF #2 (x2)

VERSE 3:
Give your ticket
To Moe the Sleaze
He's the one that's weak in the knees
His pants are bggy
But you can see them shaking

VERSE 4:
I'll introduce you to Surfer Joe
He may be there
I really don't know
We can only smoke garfong
And watch him ride the big one

CHORUS

RIFF #1
RIFF #2 (x2)

SOLO (over verse chords)

D       A     D  A
Come on down
D         A       D  A
We're all going
D       A     D  A
Come on down
D       A     D  A
Come on ... 

RIFF #1
RIFF #2 (x2)

VERSE 1:
Here's a story 'bout Surfer Joe
He caught the big one
But he let it go
There's somebody
Satisfied with winning

Here's a story 'bout Surfer Joe
He caught the big one
And he let it go
He's somebody
He's somebody

D       A      D   A
Cone on down
D         A       D   A
We're all goin' 
D       A      D   A
Come on down
D       A         D   A
Women         Booze