SLEEPS WITH ANGELS - NEIL YOUNG
-------------------------------
from: SLEEPS WITH ANGELS


Submitted by: Fredrik Johansson (fredrik.johansson@mailbox.hogia.net)

NOTE: Play with a lot of distortion and feedback

RIFF 1: 
e-------------
B-------------
G-------------
D-0-2-----5-4-
A-0-2-----5-4-
E-0-0-----0-0-

RIFF 2:
e-----------
B-----------
G-----------
D-0-2-----4-
A-0-2-----4-
E-0-0-----0-

RIFF 3:
e---------------------------------------------------------------
B-------------------------------------------------------3-------
G--------------------0--------------0--------------0-------2--4-
D--2--2--2--4--0--2-----4--4--0--2-----4--4--0--2-----4---------
A--2--2--2------------------------------------------------------
E---------------------------------------------------------------

~
e-------------------------------------------------------------------------------
B----------------------------------------------------3-----------3b-------------
G--0--------------0--------------0--------------0-------2--4b-------4b----------
D-----4--4--0--2-----4--4--0--2-----4--4--0--2-----4-----------------------0----
A-----------------------------------------------------------------------------2-
E-------------------------------------------------------------------------------

RIFF 4:
e------------------------------
B-2b---------------------------
G-----------3b--3-2-0--3-2-0-0-
D------------------------------
A------------------------------
E------------------------------

INTRO:
E5 (x4)
RIFF 1 (x3)
RIFF 2
RIFF 3

E5
She wasn't perfect
She had some trips of her own
He wasn't worried
At least he wasn't alone

w/ RIFF 1:
He sleeps with angels
He's always on someone's mind
He sleeps with angels
He sleeps with angels

RIFF 3

w/ RIFF 3 (to ~)
She was a teen queen
She saw the dark side of life
She made things happen
But when he did it that night

w/ RIFF 4:
She ran up phone bills
She moved around from town to town

RIFF 4

E5

w/ RIFF 1:
He sleeps with angels
He's always on someone's mind
He sleeps with angels