SAFEWAY CART - NEIL YOUNG
-------------------------
from: SLEEPS WITH ANGELS


Submitted by: Shakey
Words by: Steve
Interlude by: Fredrik Johansson (fredrik.johansson@mailbox.hogia.net)

INTRO:
Em
C    Bm
Em

Em             G                      Em      G
Like a Safeway cart, rolling down the street
Em            G                    Em      G
Like a sandal mark on the Savior's feet
C                 Bm                Em
Just keep rolling on, it's a ghetto dawn

baby looks so bad with her TV eyes
going, going, gone and the picture cries
it's a ghetto dawn

INTERLUDE:
e--------------------
B--------------------
G--7/9---9/7---7/9---
D--7/9---9/7---7/9---  (x2)
A--5/7---7/5---5/7---
E--------------------

e------------------
B------------------
G--7\5---5\4-------
D--7\5---5\4---2---
A--5\3---3\2---2---
E--------------0---

Em
C    Bm
Em

baby looks so bad with her TV eyes
going, going, gone and the picture cries
baby looks so bad with her TV eyes

Like a Safeway cart rolling down the street
past the Handy Mart to the Savior's feet
going, going, gone and the picture cries

baby looks so sad
baby looks so bad
It's a ghetto dawn

Like a Safeway cart, rolling down the street
Like a sandal mark on the Savior's feet
Just keep rolling on, to a ghetto dawn

Em
C    Bm
Em