MY MY, HEY HEY (OUT OF THE BLUE) - NEIL YOUNG
---------------------------------------------
from: RUST NEVER SLEEPS


Submitted by: Fredrik Johansson (fredrik.johansson@mailbox.hogia.net)

TUNING: Dropped 1 step

RIFF 1:
Am        G         F/A
e---------------------------
B---------------------------
G---------------------------
D------------0--------------
A--0---0-2-3-----2-0---0----
E--------------------3------

RIFF 2:
Am        G           F/A
e----------------------------
B----------------------------
G----------------------------
D-----------0---2-0---0------
A-0---0-2-3---------3---0----
E----------------------------

RIFF 3:
C                  G                     Am    F/A
e------------------------------------------------------
B------------------------------------------------------
G-------------------0-------2---0----------------------
D-----------0---2-------------------2---0--------------
A--3----3-----------------------------------0----------
E------------------------------------------------------

(If you've got another guitarist around, one guy can play the
riffs while the other does the Am -G-F-Am, C-Am-F chords)

INTRO:
RIFF 1
RIFF 2
RIFF 1
RIFF 2

Am  G       F/A                                     w/ RIFF 1
My my, hey hey
Am       G                F/A                       w/ RIFF 1
Rock and roll is here to stay
C         G         Am           F/A           w/ RIFF 3
It's better to burn out, than to fade away
Am   G       F/A                                    w/ RIFF 1
My my, hey hey

RIFF 1

It's out of the blue and into the black
They give you this, but you pay for that
And once you're gone you can never come back
When you're out of the blue, and into the black

RIFF 1
RIFF 2
RIFF 3
RIFF 1

The king is gone but he's not forgotten
This is a story of a Johnny Rotten
It's better to burn out than it is to rust
The king is gone but he's not forgotten

RIFF 1

Hey hey, my my
Rock and roll can never die
There's more to the picture, than meets the eye
Hey hey, my my 

RIFF 1
RIFF 2
RIFF 3
RIFF 1