MY BOY - NEIL YOUNG
-------------------
from: OLD WAYS


Submitted by: Michael Campbell (MA.MJC@Forsythe.Stanford.EDU)
Corrections by: Wolfgang Deimel (wolfgang@VSKJP1.KJP.Uni-Marburg.DE)

INTRO: (play twice)
Bb               F/A
|----------------|-1---------1----|
|-3---------3----|-------1-------1|
|-------3-------3|-----2-------2--|
|-----3-------3--|---------3------|
|-1-------1------|-0--------------|
|----------------|----------------|

Gm               F/A
|----------------|-1---------1----|
|-3---------3----|-------1-------1|
|-------3-------3|-----2-------2--|
|-----5-------5--|---------3------|
|---------5------|-0--------------|
|-3--------------|----------------|

Bb            F/A           Gm    F
Why are you growin' up so fast
Eb
My boy?
Ebm                          Bb
Oh, you'd better take your time.
F/A           Gm    F
Why are you growin' up so fast
Eb     F
My son?

Almost time to live your dreams
My boy.
Oh, you'd better take your time.
Almost time to make some plans
My son.

Bb              Eb
Vacation comes, school is out,
C           F       Eb
Summer ends year in year out.

(intro fill)

Oh, you'd better take your time
My boy.
I thought we had just begun.
Why are you growin' up so fast
My son?

(solo)

Vacation comes, school is out,
Summer ends year in year out.

Bb            F/A           Gm   F
Why are you growin' up so fast
Eb    Ebm
My boy?

Bb F/A Gm F Eb F
(harmonica)
Bb F/A Gm F Eb Ebm
(harmonica)

Bb            F/A           Gm   F
Why are you growin' up so fast
Eb     F   Bb
My son?

SOLO:
|-----------------------------------------------------|
|-----------------------------------------------------|
|-----------------------------------------------------|
|-0-1-3---3-3-3-3p0-----------------------------------|
|-------------------------3h5-3-5-1---1-3-4--3--1h3---|
|---------------------------------------------------1-|

|---------------------------------------------|
|---------------------------------------------|
|---------------------------------------------|
|-----0---1---3---3---3/5-3--3/5--5/7--7--7\3-|
|-3-------------------------------------------|
|---------------------------------------------|

CHORDS:
Bb:  x13331	F/A: x03211
Gm:  355333	F:   133211
Eb:  x65343