MOTOR CITY - NEIL YOUNG
-----------------------
from: RE*AC*TOR


Submitted by: Steve Vetter
Corrections & riff by: Fredrik Johansson (fredrik.johansson@mailbox.hogia.net)
Corrections to riff by: Wolfgang Deimel (W.Deimel@mabi.de)

D  C  G

G
e------------|-----------------|------------|--------------|-
B------------|-----------------|------------|--------------|-
G------------|-----------------|------------|--------------|-
D-----0------|--0--2--0-----0--|-----0-0----|--0-----------|-
A--4---------|-----------4-----|--4---------|-----4--3--2--|-
E------------|-----------------|------------|--------------|-

C               D           G
e-------------|-----------|------------|-
B-------------|-----------|------------|-
G-------------|-----------|------------|-
D------2-2----|--0--2--4--|--------0---|-
A--4-5--------|-----------|--2--3------|-
E-------------|-----------|------------|-

F  C  G

VERSE 1:
G
My old car keeps breaking down
My new car ain't from japan
C                D
There's already too many Datsuns
G
In this town

F  C  G

VERSE 2:
G
Another thing that's bugging me
Is this commercial on t.v.
C                  D
Says that Detroit can't make good cars
G
any more

F  C  G
Motor City

CHORUS:
C             D         G C G
Who's driving my car?
C             D      G    C G
Who's driving my car now?
D  C  G
Whooooo?

VERSE 3:
My army jeep is still alive
Got locking hubs and four wheel drive
Ain't got no radio, ain't got no mag wheels
Ain't got no digital clock
F   C   G
Ain't got no  clock

VERSE 4:
The paint job is lookin' blue
The whitewalls are missing too
But I guess until I get my car back
This'll do

F  C  G

CHORUS

SOLO (over verse chords)

C             D      G
Who's driving my car now?