LOVE IS A ROSE - NEIL YOUNG
---------------------------
from: DECADE


Submitted by: (Unknown)
Riffs by: Fredrik Johansson (fredrik.johansson@mailbox.hogia.net)

INTRO:
e--------------------
B--------------------
G--0-----------------
D-----3--0-----------
A-----------3--1-----
E-----------------3--

G     C     G
D     G
C     G
D     G

VERSE 1:
G                      C          G
Love is a rose but you better not pick it
D      G
it only grows when it's on the vine.
C        G
Handful of thorns and you'll know you missed it
D             G
you lose your love when you say the word "mine".

CHORUS:
C                  G
I wanna see what's never been seen,
D                 G
I wanna live that age old dream.
C                     G
Come on, lads, we can go together
D                   G
let's take the best right now,

e------------------------
B------------------------
G--0------------------0--
D-------3----------------
A----------3-------------
E----------------3-------
take the best right now.

G

VERSE 2:
I wanna go to an old hoedown 
long ago in a western town.
Pick me up cause my feet are draggin';
give me a lift and I'll hay your wagon.

INSTRUMENTAL CHORUS:
C     G
D     G
C     G
D     G

e------------------------
B------------------------
G--0------------------0--
D-------3----------------
A----------3-------------
E----------------3-------

G

VERSE 1:
Love is a rose but you better not pick it
it only grows when it's on the vine.
Handful of thorns and you'll know you missed it
you lose your love when you say the word "mine".

G             C G                C G
Love is a rose,    love is a rose.   
G             C G                C G
Love is a rose,    love is a rose.