LOVE ART BLUES - NEIL YOUNG
---------------------------
from: ARCHIVES BE DAMNED 1


Submitted by: Tom Hambleton (tah@scruznet.com)
(via HyperRust)

NOTES:
During the verses try holding down the chords and use your pinkie to
add the melody notes. For example the first bar of notes correspond to
the line "I've got the love art" and then strum thru "Blues", etc.


D                D (strum)        D                G (strum)
e|----------------|----------------|----------------|----------------|
B|----------------|----------------|----------------|----------------|
G|222-4---2-------|----------------|222-4---2---0---|----------------|
D|------------0---|----------------|----------------|----------------|
A|----------------|----------------|----------------|----------------|
E|----------------|----------------|----------------|----------------|

G                A (strum)        A                 D (strum)
e|----------------|----------------|----------------|----------------|
B|----------------|----------------|----------------|----------------|
G|04--4---4---4---|----------------|222-4---2-------|----------------|
D|----------------|----------------|------------0---|----------------|
A|----------------|----------------|----------------|----------------|
E|----------------|----------------|----------------|----------------|

D                     D
I've got the love art blues,
D                      G
Don't know which on to choose,
G                           A
There's really something to loose,
A                   D
With these love art blues.

D                     D
I went and played too hard,
D              G
And I lost my fun,
G                  A
Oh, these love art blues,
*D               D   D7
Leave me a heavy one.

Chorus

G                   A
My songs are all so long,
D                *E7
And my words are all so sad,
G          A
Why must I choose,
D             Dmaj7 D7
Between the best things I ever  had.

D                    D
I spilled my promise cup,
D                    G
I really don't know why,
G                A
Now the distance slides,
D
Between you and I.

D                     D
I've got the love art blues,
D                      G
Don't know which on to choose,
G                           A
There's really something to loose,
A                   D
With these love art blues.