LIKE A HURRICANE - NEIL YOUNG
-----------------------------
from: AMERICAN STARS 'N BARS


Submitted by: (Unknown)
Melody line submitted by: Fredrik Johansson (fredrik.johansson@mailbox.hogia.net)
Corrections to chords by: Marco Paganini (marcop@homemail.com)

MELODY LINE:
Am                       G/D
e|-0--------------------0-|-------------------0----------|
B|----3--1--0-----0--1----|-3--1--0--1--3--3-----3--1--0-|
G|-------------2----------|------------------------------|
D|------------------------|------------------------------|
A|------------------------|------------------------------|
E|------------------------|------------------------------|

F                        Em                             G/D
e|---------------------0--|-0----------------------------|----
B|-1--3--1--0-----0--1----|------------------------------|-3--
G|-------------2----------|------------------------------|----
D|------------------------|------------------------------|----
A|------------------------|------------------------------|----
E|------------------------|------------------------------|----

NOTE:
* This melody line is played along w/ the verse chords but is
variated and played somewhat differently during the different
verses.

Am                              G
Once I thought I saw you in a crowded, hazy bar,
Fmaj7                                     Em7  G
dancing on the light from star to star.
Am                            G
Far across the moon beams, I know that's who you are.
Fmaj7                                      Em7  G
I saw your brown eyes turning once to fire.
C   G    F        G       C        G   F       G
You are like a hurricane: there's calm in your eye.
C    G   F            G
And I'm getting blown away. 
Fmaj7
There's somewhere safer where the feelings stay.
Am  G  Fmaj7  Em7  G
I wanna love you but I'm getting blown away.

I am just a dreamer, but you are just a dream,
and you could have been anyone to me.
Before that moment you touched my lips,
that perfect feeling when time just slips 
away between us and our foggy trips.
You are like a hurricane: there's calm in your eye.
And I'm getting blown away. 
There's somewhere safer where the feelings stay.
I wanna love you but I'm getting blown away.

You are just a dreamer, and I am just a dream,
and you could have been anyone to me.
Before that moment you touched my lips,
that perfect feeling when time just slips
away between us and our foggy trips.
You are like a hurricane: there's calm in your eye.
And I'm getting blown away. 
There's somewhere safer where the feelings stay.
I wanna love you but I'm getting blown away.