LAST DANCE - NEIL YOUNG
-----------------------
from: TIME FADES AWAY


Submitted by: Michael Campbell (MA.MJC@Forsythe.Stanford.EDU)
(via HyperRust)

INTRO:   RIFF1   (4x)

(continue riff1 throughout verses)

E7 E        E7 E     G       A
Wake up! It's a Monday morning
E7 E        E7 E     G        A
No time left to say goodbye
E7 E             E7 E       G          A
Can't breathe and the lights are changing.
riff2                                   C   D
You can live your own life, making it happen
riff2                                     C      D
Working on your own time, laid back and laughin'
Cmaj7
Oh no, oh no.

RIFF1 (4x)

Headlights, make it home by sundown
Feeling that the day is through
Return back to where you come from
You can live your own life, making it happen
Working on your own time, laid back and laughin'
Oh no, oh no.

SOLO

You wake up in the mornin'
And the sun's comin' up.
Its been up for hours and hours and hours
And hours and hours and hours
It's been up for hours and hours and hours
And you light up the stove
And the coffee cup, its hot.
And the orange juice is cold, cold, cold
Monday morning,
Wake up, wake up, wake up, wake up
Its time to go,
Time to go to work.

You can live your own life, making it happen
Working on your own time, laid back and laughin'
Oh no, oh no.

Cmaj7
No, no, no.   (repeat several times)

(ending riff)

RIFF1:  (played for intro, over verse, and fills)
E7 E  E7 E           G   A
|-0-0---0-0-----------3---5-------
|-0-0---0-0-----------3---5-------
|-1-1---1-1-----------4---6-------
|-0h2---0h2------0----5---7-------
|-2-2---2-2--0h2---2--5---7-------
|-0-0---0-0-----------3---5-------

also sometimes like this:
E7 E  E7 E           G   A
|-0-0---0-0-----------3---5-------
|-0-0---0-0-----------3---5-------
|-1-1---1-1-----------4---6-------
|-0h2---0h2---2p0-----5---7-------
|-2-2---2-2-------2---5---7-------
|-0-0---0-0-----------3---5-------

RIFF 2:
C       D
|---------------|---------------|---------------|-0-------2-------|
|---------------|---------------|---------------|-1-------3-------|
|---------------|---------------|---------------|-0-------2-------|
|---------------|---------------|---------------|-2-------0-0-----|
|-0-2-2-2-0-2-2-|-0-2-2-2-0-2-2-|-0-2-2-2-0-2-2-|-3-3-2-0-----3-2-|
|---------------|---------------|---------------|-----------------|

ENDING RIFF:
|---------------|---------------|---------------|--------------|
|---------------|---------------|---------------|--------------|
|---------------|---------------|---------------|--------------|
|---------------|---------------|---------------|--------------|
|-0-2-2-2-0-2-2-|-0-2-2-2-0-2-2-|-0-2-2-2-0-2-2-|-0-2-2-2-0-2--|
|---------------|---------------|---------------|--------------|