HEY HEY, MY MY (INTO THE BLACK) - NEIL YOUNG
--------------------------------------------
from: RUST NEVER SLEEPS


Submitted by: Fredrik Johansson (fredrik.johansson@mailbox.hogia.net)

RIFF 1:
Am         G         F/A
e---------------------------
B---------------------------
G---------------------------
D------------0--------------
A--0---0-2-3-----2-0---0----
E--------------------3------

RIFF 2:
C                  G                 Am    F/A
e--------------------------------------------------
B--------------------------------------------------
G-------------------0-------2---0------------------
D-----------0---2-------------------2--------------
A--3----3-------------------------------0----------
E--------------------------------------------------

(If you've got another guitarist around, one guy can play the
riffs while the other does the Am -G-F-Am, C-Am-F chords)

INTRO:
RIFF 1  (x2)
RIFF 2
RIFF 1

Am  G       F/A                                     w/ RIFF 1
Hey hey, my my
Am       G               F/A                        w/ RIFF 1
Rock and roll will never die
C           G        Am             F/A     w/ RIFF 2
There's more to the picture, than meets the eye
Am   G       F/A                                    w/ RIFF 1
Hey hey, my my

RIFF 1  (x2)
RIFF 2
RIFF 1

Out of the blue and into the black
You pay for this and they give you that
Once you're gone, you can't come back
When you're out of the blue, and into the black

RIFF 1  (x2)
RIFF 2
RIFF 1

The king is gone but he's not forgotten
Is the story of Johnny Rotten?
It's better to burn out 'cause rust never sleeps
The king is gone but he's not forgotten

RIFF 1  (x2)
RIFF 2
RIFF 1

Hey hey, my my
Rock and roll will never die
There's more to the picture, than meets the eye

Am G F/A

RIFF 1  (x2)
RIFF 2
RIFF 1

RIFF 1