FLYING ON THE GROUND IS WRONG - NEIL YOUNG
------------------------------------------
from: BUFFALO SPRINGFIELD


Submitted by: David M (davidjo@ozemail.com.au)
(via HyperRust)

CHORDS:
E|--0--2----4----0---3---2---2---0---2---1---3---1---3---
B|--2--2----2----1---1---1---3---0---3---2---2---3---0---
G|--2--2----2----2---2---2---4---1---2---2---2---2---0---
D|--2--2----2----2---2---0---4---2---0---3---2---0---0---
A|--0--0----0----0---0-------2---2-------0---0-------2---
E|---------------------------2---0-------------------3---
A  A6 Amaj7* Am Am7  D7  Bm  E   D   A+  A7  Dm  G

E|--0---1--1---0---0------0---0-----0-----3----
B|--0---1--1---1---0------0---2-----0-----0----
G|--0---2--2---0---2------1---1-----0-----0----
D|--2---3--0---2---2------0---2-----2-----2----
A|--2---3------3---2------2---0-----3-----3----
E|--0---1----------0------0------------------
Em  F  Dm7 C   Esus4  E7  Amaj7 Cmaj7 Cmaj7*

INTRO:
A       A6    Amaj7*
Am     Am7      D7

A      A6        Amaj7*  A6
Is my world not falling down
Amaj7   A6    Amaj7*   A6
I'm in pieces on the ground
Bm
And my eyes aren't open
A     A6  Amaj7* A6  Amaj7  A6
And I'm standing on my knees
E                 Bm
But if crying and holding on
D                      Bm
And flying on the ground is wrong
A        A+
Then I'm sorry to let you down,
D          Bm
But you're from my side of town
A
And I miss you.

A       A6    Amaj7*
Am     Am7      D7

Turn me up or turn me down
Turn me off or turn me round
I wish I could have met you in a place
Where we both belong
But if crying and holding on
And flying on the ground is wrong
Then I'm sorry to let you down,
But you're from my side of town
And I miss you.

A    A6    A7

Dm          G             Em              F
Sometimes I feel like I'm just a helpless child
Dm7         G           C   Esus4
Sometimes I feel like a kid.
E7   Amaj7         Bm
But baby, since I have changed
Amaj7   D Bm         Amaj7   D
I can't take nothing home.

(Harmonica) Amaj7   D   Amaj7  Cmaj7  Cmaj7*  D7

City lights at a country fair
Never shine but always glare
If I'm bright enough to see you,
You're just to dark to care.
But if crying and holding on
And flying on the ground is wrong
Then I'm sorry to let you down,
But you're from my side of town
And I miss you.