FEEL YOUR LOVE - NEIL YOUNG
---------------------------
from: AMERICAN DREAM


Submitted by: Malc Brookes (Malc@malbro.demon.co.uk)

TUNING:
Standard dropped down a tone, DGCFAD.

MAIN THEME:
C                                G
D|---------------------------0-0-0-|---------------------------3-3-3-|
A|-------1---1---1-3-1---0---0-0-0-|-------3---3---3-1-0---0---0-0-0-|
F|---0---0---0---0-0-0---0---0-0-0-|---0---0---0---0-0-0---2---0-0-0-|
C|---------------------------------|---------------------------------|
G|-3---3---3---3---3---3---3---3---|---------------------------------|
D|---------------------------------|-3---3---3---3---3---3---3---3---|

F
D|---------------------------------|---------------------------1-1-1-|
A|-------1---1---0-----------------|---------------------------1-1-1-|
F|---2---2---2---0---2---0---0---2-|---0---0---0---2---0---0---0-0-0-|
C|-------------------3---3---3---3-|---3---3---3---3---3---3---3-3-3-|
G|---------------------------------|---------------------------------|
D|-1---1---1---1---1---1---1---1---|-1---1---1---1---1---1---1---1---|

INTRO: main theme * 2

VERSE: (main theme)
C                  G
High on a balcony, right where we used to be
F
This city dancing like a sparkling sea
C                     G
I wanna catch a wave, I wanna swim to shore
F
Walk on that same beach like I did before

CHORUS:
C        G                             Am
I really want the sun, want the sun to rise
F                        C       G
I really want to end the night
C        G                           Am
I really wanna feel, wanna feel your love
F       G
I wanna feel your love

MAIN THEME * 2

VERSE:
I think of our old friends, I count my enemies
I here you tell me how I don't know love
I wanna feel your love, I wanna lay right down
Wish I was swimming in the sound of love

CHORUS:
I really want the night, want the night to end
I really want the sun to rise
I really wanna feel, wanna feel your love
I wanna feel your love

MAIN THEME * 1

VERSE:
And now the night is still, the mansion on the hill
The children sleeping in their endless dreams
I wanna feel your love, I wanna feel your love
I wanna feel your love, feel your love, feel your love
I wanna feel your love, I wanna feel your love
I wanna feel your love, feel your love, feel your love

MAIN THEME * 1, finishing on F.