DREAMIN' MAN - NEIL YOUNG
-------------------------
from: HARVEST MOON


Submitted by: Malcolm Brookes (BrookesM@agsolutions.co.uk)

TUNING: D-Modal, DADGBD.

CHORDS:
G       550000	Em7     220000
Cadd9   x32010	F2add6? 330010
D5      000230	C/D     xx0555
D(vii)  xx0777	Dadd4   x54030
Ebmaj7  111030

INTRO:
G / / / Em7 / / / Cadd9 / / / Cadd9 / / /
G / / / F2add6 / / / Cadd9 / / / Cadd9 / / /

VERSE:
G                  Em7              Cadd9
I'm a dreamin' man,  yes, that's my problem
G                     F2add6       Cadd9
I can't tell when I'm    not being real.
G                  Em7         Cadd9
In the meadow dusk    I park my Aerostar
G                 F2add6                   Cadd9
With a loaded gun      and sweet dreams of you. 

CHORUS:
G
I'll always be a dreamin' man
Em7
I don't have to understand
Cadd9          D5
I know it's al-right.

FILL:
1   2 .  3  .  4     1   2 .  3 . 4 .
D|--0---9-10-12-10-9--|--0---7-9-10-9---7--|
B|--0-----------------|--0-----------------|
G|--0-----------------|--0-----------------|
D|--0-----------------|--0-----------------|
A|--5-----------------|--5-----------------|
D|--5-----------------|--5-----------------|

C/D / D(vii) / Cadd9 / D5 / Cadd9 / D5 /

1   2 .  3  .  4     1   2 .  3   4 .
D|--0---9-10-12-10-9--|--0---7-9-10---9-7--|
B|--0-----------------|--0-----------------|
G|--0-----------------|--0-----------------|
D|--0-----------------|--0-----------------|
A|--5-----------------|--5-----------------|
D|--5-----------------|--5-----------------|

C/D / D(vii) / Cadd9 / D5 / Cadd9 / D5 /

VERSE:
I see your curves and I feel your vibrations
You dress in black and white, you're lost in the mall
I watch you disappear past Club Med Vacations
Another sleepless night, a sun that won't fall.

CHORUS:
G
I'll always be a dreamin' man
Em7
I don't have to understand
Cadd9          Dadd4
I know it's al-right.

FILL

VERSE:
Now the night is gone, a new day is dawning
And our homeless dreams go back to the street
Another time or place, another civilization
Would really make this life feel so complete.

CHORUS:
G
I'll always be a dreamin' man
Em7
I don't have to understand
Cadd9          D5
I know it's al-right.

FILL

G     Em7  Cadd9
Dream-in'  man (he's got a problem)
G     F2add6 Cadd9
Dream-in'    man
G     Em7 Cadd9
Dream-in' man (he's got a problem)
G     F2add6 Em7  Ebmaj7
Dream-in'    man.