DANCE, DANCE, DANCE - NEIL YOUNG
--------------------------------
from: ARCHIVES BE DAMNED 1


Submitted by: Malc Brookes (malc@malbro.demon.co.uk)
(via HyperRust)

INTRO: (play twice)
A              A9 A     D     D9    A9    A
E|--5-----5-----5--7--5-----2-----0-----0-----0-----|
B|--5-----5-----5--5--5-----3-----3-----0-----2-----|
G|--5h6---6-----6--6--6-----2-----2-----2-----2-----|
D|--7-----7-----7--7--7-----0-----0-----2-----2-----|
A|--------------------------------------0-----0-----|
E|--------------------------------------------------|

A     A9 A  Asus4 A     A9    E     A
E|--------0--0--0-----0-----0-----0-----0-----------|
B|--------0--2--3-----2-----0-----0-----2-----------|
G|--------2--2--2-----2-----2-----1-----2-----------|
D|--------2--2--2-----2-----2-----2-----2-----------|
A|--0-----0--0--0-----0-----0-----2-----0-----------|
E|--------------------------------0-----------------|

VERSE:
A                        D       A
Never thought love had a rainbow on it
A                         E     A
Used to think a cloud was night-mare
A                      D       A
That was up until when I first met you
A                      E   D
Now I go around hoping you care

CHORUS:
D
Dance, dance, feel it all around you
D      D9     A
Dance, dance, dance
A                        D       A
Never thought love had a rainbow on it
A                  E  A
See the girl dance
A                  E  A
See the girl dance

INTRO

VERSE:
Mississippi mud never touched her fingers
California sand lies in her hand
Love her more than life as the daylight lingers
Early in the morning I'll be her man

CHORUS:
Dance, dance, feel it all around you
Dance, dance, dance
Mississippi mud never touched her fingers
See the girl dance
See the girl dance

INTRO & FINISH