COMPUTER COWBOY - NEIL YOUNG
----------------------------
from: TRANS


Submitted by: Charlie Coombs (GUNGBG@aol.com)
(via http://HyperRust.Org)

INTRO: 
E (D)  E             D               
E------------------|------------------|
B---777779---------|---777777---------|
G---777779---------|---777777---------|
D---777779---------|---777777---------|
A----------765-557-|---555555-765-567-|
E-0-----------7----|-0-----------7----|

C                  E      D
E------------------|------------
B---555555---------|---99999--7-
G---555555---------|---99999--7-
D---555555---------|---99999--7-
A---333333-765-557-|---77777--5-
E-0-----------7----|-0-----------

D                Am
Well, his cattle each have numbers 
D            Am
And they all eat in a line 
D                     Am
When he turns the floodlights on each night 
F                     G
Of course the herd looks perfect! 

Computer Cowboy. 

INTRO

Well, he rides the range 'til midnight 
And the wild coyotes yowl 
As he trots beneath the floodlights 
And of course the rhythm is perfect! 
Computer Cowboy. 

INTRO x2

Ride along computer cowboy 
To the city just in time 
To bring another system down 
And leave your alias behind: 
Computer syscrusher. 

INTRO x2

Computer syscrusher. 
Crusher. Syscrusher. 
Syscrusher. 

Come a ky ky yippee yi yippee yi ay 
Come a ky ky yippee yi ay. 
Come a ky ky yippee yi yippee yi ay 
Come a ky ky yippee yi ay. 

INTRO x2

Computer syscrusher