BUFFALO SPRINGFIELD AGAIN - NEIL YOUNG
--------------------------------------
from: UNRELEASED


Submitted by: Malc Brookes (Malc@malbro.demon.co.uk)
(Via HyperRust)

NOTES:
* The chord change from G to C/G is very exaggerated, i.e.
hammer-on the 4th and 2nd strings.

CHORDS:
G       320003        C/G     3x2013
C       x32010        D       xx0232
Em      022000        Em7sus4 020200

INTRO:
G / C/G / G / C/G / G / C/G G / C/G

VERSE:
G       C/G       G             C/G  G   C/G        G   C/G
Used to play in a rock 'n' roll band,    they broke up
G       C/G      G        C/G   G     C/G        G    C/G
We were young and we were wild,   and times were rough
D                               G     C/G   G   C/G
I ain't saying who was right or wrong.

VERSE:
Looking out on a big green lawn, girls and boys
Playing in the afternoon sun, and life's a joy
I heard an old song playing on the radio.

CHORUS:
D             Em   Em7sus4  C
Buffalo      Springfield        again

FILL:
G
E|--3--------------------|--3--------------------|
B|--0--------------------|--0--------0h3-5---0---|
G|--0---/4---0h2-0----0--|--0---/4---------------|
D|--0--------------2-----|--0--------------------|
A|--2--------------------|--2--------------------|
E|--3--------------------|--3--------------------|

G
E|--3--------------------|--3--------------------|
B|--0--------------------|--0--------------------|
G|--0---/4---0h2-0----0--|--0---/4---0h2--0---0--|
D|--0--------------2-----|--0--------------------|
A|--2--------------------|--2--------------------|
E|--3--------------------|--3--------------------|

C / / / G / C/G /

CHORUS:
Buffalo Springfield again

VERSE:
Like to see those guys again, and give it a shot
Maybe now we can show the world what we got
Well I'd just to play for the fun we had.

CHORUS:
Buffalo Springfield again

Repeat fill and finish on G.