Voodoo Kiss (Intro)
-------------------
Mr.Big

Transcribed By Socrates
"[email protected]"


        This is the intro for 'Voodoo Kiss' from
Mr.Big, please if anyone
can post the rest of the song, I'll appreciate it.
Tune at E.

|-----------------------------------------------------------------------|
|-----------------------------------------------------------------------|
|*-3-3^5^3^0----0-0--3-3^5^3^0---0-0--3-3^5^3^0---0--------------------*|
|*-----------0-----------------0----------------0---3^2^0--------------*|
|---------------------------------------------------------4^5-4^5--1----|
|--------------------------------------------------------------------3--|

|---------------------------------6--5--3---|
|---------------------------------6--5--3---|
|*-----3^0---4^0---5^0---6^0---7--6--5--3--*|
|*-----------------------------------------*|
|----4-----5-----6-----7-----8--------------|
|-------------------------------------------|

|----------------------------------------||
|----------------------------------------||
|---3^0---4^0---5^0---6^0---7-7--6-5--4--||
|---------------------------6-6--5-4--3--||
|-4-----5-----6-----7-----8-8-7--7-6--5--||
|----------------------------------------||


=====

Articles liés :

Pin It on Pinterest

Spelling error report

The following text will be sent to our editors: