Whiskey In The Jar (Traditional)                                        
                Metallica - Garage Inc. (recorded by Thin Lizzy first)
                                a LooX Pro tab
                          Tunning: A hole step down (heavy!)
                                 Just play along....

 ~= vibrato h= hammer /= slide r= realese p= pull off b= bend the sucker!
intro:                                                                             
D||--------------------|-------------------------|--------------------------|
A||--------------------|-------------------------|--8-----------------------|
F||--------------------|------------7--7--7h9h11-|-----9--11--7--9--12~-----|
C||----------5----4----|-------------------------|--------------------------|
G||----------5----4----|-------------------------|--------------------------|
D||----------3----2----|-------------------------|--------------------------|


                                                                                 
-------------------------|----------------------------|-------------------------|
-------------------------|--8-------------------------|-------------------------|
------------7--7--7h9h11-|-----9--11--7--9--12-----12r|------------7--7--7h9h11-|
-------------------------|----------------------------|-------------------------|
-------------------------|----------------------------|-------------------------|
-------------------------|----------------------------|-------------------------|


                                                                                                 
-------------------------|------------------------|-------------------------|----------------|
--8-----7----------------|------------------------|--3----------------------|----------------|
-----9-----7--9/-12~-----|---------------0--0h2h4-|-----0--2--0--2/4-0------|----------------|
-------------------------|------------5-----------|-------------------------|----------------|
-------------------------|------------------------|-------------------------|----------------|
-------------------------|------------------------|-------------------------|----------------|


verse:                                                                                                    
------------------------|------------------------|------------------------|------------------------|
------------------------|------------------------|------------------------|------------------------|
------------------------|------------------------|---------------------5--|--5--5----5--5--5----5--|
--5--5----5--5--5----2--|--2--2----2--2--2----2--|--2--2----2--2--2----5--|--5--5----5--5--5----5--|
--5--5----5--5--5----2--|--2--2----2--2--2----2--|--2--2----2--2--2----3--|--3--3----3--3--3----3--|
--3--3----3--3--3----0--|--0--0----0--0--0----0--|--0--0----0--0--0-------|------------------------|


                                                                                                    
------------------------|------------------------|------------------------|------------------------|
------------------------|------------------------|------------------------|------------------------|
--5--5----5--5--5-------|------------------------|------------------------|------------------------|
--5--5----5--5--5----5--|--5--5----5--5--5----5--|--5--5----5--5--5----5--|--5--5----5--5--5----5--|
--3--3----3--3--3----5--|--5--5----5--5--5----5--|--5--5----5--5--5----5--|--5--5----5--5--5----5--|
---------------------3--|--3--3----3--3--3----3--|--3--3----3--3--3----3--|--3--3----3--3--3----3--|


                                                                                                   
-----------------------|------------------------|------------------------|------------------------|
-----------------------|------------------------|------------------------|------------------------|
-----------------------|------------------------|---------------------5--|--5--5----5--5--5----5--|
--5--5----5--5----4----|--2--2----2--2--2----2--|--2--2----2--2--2----5--|--5--5----5--5--5----5--|
--5--5----5--5----4----|--2--2----2--2--2----2--|--2--2----2--2--2----3--|--3--3----3--3--3----3--|
--3--3----3--3----2----|--0--0----0--0--0----0--|--0--0----0--0--0-------|------------------------|


                                                          solo thingy:                           
------------------------|------------------------|-----------------------------|
------------------------|------------------------|-----------------------------|
--5--5----5--5--5-------|------------------------|----------------7--7--7h9h11-|
--5--5----5--5--5----5--|--5--5----5--5--5----5--|--5--5----5------------------|
--3--3----3--3--3----5--|--5--5----5--5--5----5--|--5--5----5------------------|
---------------------3--|--3--3----3--3--3----3--|--3--3----3--0---------------|


                                                                                  
--------------------------|-------------------------|----------------------------|
--8-----------------------|-------------------------|--8-------------------------|
-----9--11--7--9/-12~-----|------------7--7--7h9h11-|-----9--11--7--9/-12-----12r|
--------------------------|-------------------------|----------------------------|
--------------------------|-------------------------|----------------------------|
--------------------------|-------------------------|----------------------------|


                                                                                    
-----------------------|--------------------------------|--------------------------|
--------------------8--|--10r-10--10r-10--10--8~---8h10p|--8~-----8----------------|
--12~---------7--9-----|--------------------------------|-----------------0--0h2h4-|
-----------------------|--------------------------------|--------------5-----------|
-----------------------|--------------------------------|--------------------------|
-----------------------|--------------------------------|--------------------------|


                          verse:                                                  
-------------------------|------------------------|------------------------|
--3----------------------|------------------------|------------------------|
-----0--2--0--2r2p0------|------------------------|------------------------|
-------------------------|--5--5----5--5--5----5--|--5--5----5--5--5----5--|
-------------------------|--5--5----5--5--5----5--|--5--5----5--5--5----5--|
-------------------------|--3--3----3--3--3----3--|--3--3----3--3--3----3--|


                                                                                                    
------------------------|------------------------|------------------------|------------------------|
------------------------|------------------------|------------------------|------------------------|
------------------------|------------------------|---------------------5--|--5--5----5--5--5----5--|
--5--5----5--5--5----2--|--2--2----2--2--2----2--|--2--2----2--2--2----5--|--5--5----5--5--5----5--|
--5--5----5--5--5----2--|--2--2----2--2--2----2--|--2--2----2--2--2----3--|--3--3----3--3--3----3--|
--3--3----3--3--3----0--|--0--0----0--0--0----0--|--0--0----0--0--0-------|------------------------|


                                                                                                    
------------------------|------------------------|------------------------|------------------------|
------------------------|------------------------|------------------------|------------------------|
--5--5----5--5--5-------|------------------------|------------------------|------------------------|
--5--5----5--5--5----5--|--5--5----5--5--5----5--|--5--5----5--5--5----5--|--5--5----5--5--5----5--|
--3--3----3--3--3----5--|--5--5----5--5--5----5--|--5--5----5--5--5----5--|--5--5----5--5--5----5--|
---------------------3--|--3--3----3--3--3----3--|--3--3----3--3--3----3--|--3--3----3--3--3----3--|


                                                                                                    
------------------------|------------------------|------------------------|------------------------|
------------------------|------------------------|------------------------|------------------------|
------------------------|------------------------|---------------------5--|--5--5----5--5--5----5--|
--5--5----5--5--5----2--|--2--2----2--2--2----2--|--2--2----2--2--2----5--|--5--5----5--5--5----5--|
--5--5----5--5--5----2--|--2--2----2--2--2----2--|--2--2----2--2--2----3--|--3--3----3--3--3----3--|
--3--3----3--3--3----0--|--0--0----0--0--0----0--|--0--0----0--0--0-------|------------------------|


                                                              chorus:           
------------------------|------------------------|-------------------------|
------------------------|------------------------|-------------------------|
--5--5----5--5--5-------|------------------------|----------------7--7--7--|
--5--5----5--5--5----5--|--5--5----5--5--5----5--|--5--5----5--5-----------|
--3--3----3--3--3----5--|--5--5----5--5--5----5--|--5--5----5--5--5--5--5--|
---------------------3--|--3--3----3--3--3----3--|--3--3----3--3-----------|


                                                                                
--------------------------|--------------------------|-------------------------|
--------------------------|--------------------------|-------------------------|
--7--7--7--7--7--7--7--7--|--7--7--7--7--7--6--6--5--|--5----5--5--x--x--5--5--|
--------------------------|--------------------------|-------5--5--x--x--5--5--|
--5--5--5--5--5--5--5--5--|--5--5--5--5--5--4--4--3--|--3----3--3--x--x--3--3--|
--------------------------|--------------------------|-------------------------|


                                                                                                    
-------------------------|-------------------------|---------------------------|-------------------|
-------------------------|-------------------------|---------------------------|-------------------|
------------------x--5-5-|--5----5--5--5--5--5--5--|--5--5--5--12----12--12\---|-------------------|
------------------x--5-5-|--5----5--5--5--5--5--5--|--5--5--5------------------|--5----------------|
------------------x--3-3-|--3----3--3--3--3--3--3--|--3--3--3--10----10--10\---|--5----------------|
------4--4--4--4---------|-------------------------|---------------------------|--3----------------|


            the solo:                                                                  
------------------------|--------------------------|-------------------------|
------------------------|--8-----------------------|-------------------------|
-------------7--7--9-11-|-----9--11--7--9/-12~-----|------------7--7--7h9h11-|
--5---------------------|--------------------------|-------------------------|
--5---------------------|--------------------------|-------------------------|
--3---------------------|--------------------------|-------------------------|


                                                                                    
----------------------------|-----------------------|------------------------------|
--8-------------------------|--------------------8--|--10r-10p-8--10b---10r---8h10-|
-----9--11--7--9/-12-----12r|--12~---------7--9-----|------------------------------|
----------------------------|-----------------------|------------------------------|
----------------------------|-----------------------|------------------------------|
----------------------------|-----------------------|------------------------------|


                                                                                          
--------------------------|-----------------------|-------------------|------------------|
--8~-----8----------------|--3--------------------|-------------------|------------------|
--------------0--0--0h2h4-|-----0--2--0--2r-------|--0----------------|------------------|
--------------------------|-----------------------|-------------------|------------------|
--------------------------|-----------------------|-------------------|------------------|
--------------------------|-----------------------|-------------------|------------------|


                                                                                            
------------------------|--------------------|------------------------|--------------------|
------------------------|--------------------|------------------------|--------------------|
--7--7----7----7-9---7\-|--4--4~-------------|--9------9----9h11---9\-|--5--5~-------------|
------------------------|--------------------|------------------------|--------------------|
------------------------|--------------------|------------------------|--------------------|
------------------------|--------------------|------------------------|--------------------|


                                                                                           
-----------------------|--------------------|-----------------------|---------------------|
-----------8--8--------|--------------------|-----------------------|---------------------|
------9----------9p-7--|-------7~-----------|------7--9--7----7--9--|--7~-----------7\-4--|
-----------------------|--9-----------------|-----------------------|---------------------|
-----------------------|--------------------|-----------------------|---------------------|
-----------------------|--------------------|-----------------------|---------------------|


                                                                                           
------------------------|--------------------|------------------------|-------------------|
------------------------|--------------------|------------------------|-------------------|
--7----7--7----7h9---7\-|--4--4~-------------|-------7h9---9----9\-5--|--5----------------|
------------------------|--------------------|--9---------------------|-------------------|
------------------------|--------------------|------------------------|-------------------|
------------------------|--------------------|------------------------|-------------------|


                                                                                        
-----------------------|---------------------|---------------------|-------------------|
-----------8--8--------|---------------------|---------------------|-------------------|
------9----------9p-7--|--7~-------------7h9p|--7~-----------7--9--|--7~---------------|
-----------------------|---------------------|---------------------|-------------------|
-----------------------|---------------------|---------------------|-------------------|
-----------------------|---------------------|---------------------|-------------------|


                                                                                    
--------------------|-------------------|-------------------|----------------------|
--------------------|-------------------|----------------8/-|--13~-----13~---------|
--------------7\-6--|--5~---------------|-------------------|----------------------|
--------------------|-------------------|-------------------|----------------------|
--------------------|-------------------|-------------------|----------------------|
--------------------|-------------------|-------------------|----------------------|


                                                                           
----------------------------|------------------------|--------------------|
----13----13----13----12h13p|--12~-------------12h13p|--12~---------------|
----------------------------|------------------------|--------------------|
----------------------------|------------------------|--------------------|
----------------------------|------------------------|--------------------|
----------------------------|------------------------|--------------------|


                                                                                         
----------------------------|--------------------7--8--|--8--10--7h8p7-----7------------|
--8-------------------------|--------------------------|---------------10-----10--8--7--|
-----9--11--7--9/-12~---12~-|----12~---12~---12--------|--------------------------------|
----------------------------|--------------------------|--------------------------------|
----------------------------|--------------------------|--------------------------------|
----------------------------|--------------------------|--------------------------------|


                                                                 
---------7h-8--5/10-------10--|--10h12~--12--10--12--------14b--|
--8--10---------------12------|--------------------------x------|
------------------------------|------------------------x--------|
------------------------------|---------------------------------|
------------------------------|---------------------------------|
------------------------------|---------------------------------|


                                                                          
--12----10----12--10--12----------10----|--8----7----5-------------------|
----------------------------12----------|-----------------8----6----5----|
----------------------------------------|--------------------------------|
----------------------------------------|--------------------------------|
----------------------------------------|--------------------------------|
----------------------------------------|--------------------------------|


                                                                           
--8p7-5-----------------------|----------------------|--------------7--8--|
--------8---6--5--------------|----------------------|--------------------|
--------------------7----5----|--4r---4r---4r---4r---|--------------------|
------------------------------|----------------------|--------------------|
------------------------------|----------------------|--------------------|
------------------------------|----------------------|--------------------|


                                                                                               
--10--8--7h8p7-----7------------|---------7--8--8/10-------10--|--10-12~--12--10--12--14b-----|
---------------10-----10--8--7--|--8--10---------------12------|------------------------------|
--------------------------------|------------------------------|------------------------------|
--------------------------------|------------------------------|------------------------------|
--------------------------------|------------------------------|------------------------------|
--------------------------------|------------------------------|------------------------------|


                                                                      
--12----10----12--10--12--------10--|--8----7----5-------------------|
----------------------------12------|-----------------8----6----5----|
------------------------------------|--------------------------------|
------------------------------------|--------------------------------|
------------------------------------|--------------------------------|
------------------------------------|--------------------------------|


                                                                                             
----------7h8----10-----12----|--------------------------------|----------------------------|
--5h6p5-8-----5/-----5/-------|--------------------------------|-------------------------8--|
------------------------------|--12~---12~---12----12----12----|--12--12--12----------9-----|
------------------------------|--12~---12~---14----12----10----|--9---10--12----------------|
------------------------------|--------------------------------|----------------------------|
------------------------------|--------------------------------|----------------------------|


                                                                                       
-------------------------------|------------------------|-----------------------------|
--10b---10b-10r---10p8----8h10-|--8~---8-----8----------|-----------------------------|
-----------------------9-------|----------9-----7----6--|--5~---7--5--9----7/---10----|
-------------------------------|------------------------|-----------------------------|
-------------------------------|------------------------|-----------------------------|
-------------------------------|------------------------|-----------------------------|


                                                                                             
------------------------12----|----------------------------|--------------------------------|
-----8-------10----8----------|--8--8~---8--8--------------|--8-----------------------------|
--9-------9-------------------|------------------9----9----|--9----9----9----9/-12--12/-14--|
------------------------------|----------------------------|--------------------------------|
------------------------------|----------------------------|--------------------------------|
------------------------------|----------------------------|--------------------------------|


                                                                                                  
----------------------15h17p15h17p15----|--15----15-------------------|--------------------------|
----------------15h17----------------17-|-----------------------------|--8-----------------------|
--12----12h-14--------------------------|----------------7--7--7h9h11-|-----9--11--7--9--12~-----|
----------------------------------------|-----------------------------|--------------------------|
----------------------------------------|-----------------------------|--------------------------|
----------------------------------------|-----------------------------|--------------------------|


                                                                                            
-------------------------------|------------------------------|----------------------------|
-------------------------------|--8---------------------------|----------------------------|
--12----12--12----7--7--7h9h11-|-----9--11--7--9/-12~-12---12r|--12------12----12--14--12--|
-------------------------------|------------------------------|----------------------------|
-------------------------------|------------------------------|----------------------------|
-------------------------------|------------------------------|----------------------------|


                                                                                           
----------------------------------|------------------------------|------------------------|
----------------------------------|------------------------------|--3---------------------|
--14b---14b---14b---14r-----12h14p|--12~---12--12-------0--0h2h4-|-----0--2--0--2r---2r---|
----------------------------------|------------------5-----------|------------------------|
----------------------------------|------------------------------|------------------------|
----------------------------------|------------------------------|------------------------|


 *aaaah*                                                                                         
-------------------|------------------|------------------|--0----------------|------------------|
-------------------|------------------|------------------|--0----------------|------------------|
--0----------------|------------------|------------------|--0----------------|------------------|
-------------------|------------------|------------------|--2----------------|------------------|
-------------------|------------------|------------------|--2----------------|------------------|
-------------------|------------------|------------------|--0----------------|------------------|


                                                                                                  
--0----------------|------------------|--3----------------|------------------|--3----------------|
--1----------------|------------------|--3----------------|------------------|--3----------------|
--0----------------|------------------|--0----------------|------------------|--0----------------|
--2----------------|------------------|--0----------------|------------------|--0----------------|
--3----------------|------------------|--2----------------|------------------|--2----------------|
-------------------|------------------|--3----------------|------------------|--3----------------|


                                                                                     
------------------|--0----------------|--0-------------------|-------------------0--|
------------------|--0----------------|-------0--------------|-----------1----------|
------------------|--0----------------|----------0----0------|--------------0-------|
------------------|--2----------------|----------------------|----------------------|
------------------|--2----------------|----------------------|--3-------------------|
------------------|--0----------------|----------------------|----------------------|


                                                                                            
---------3----0-------|--3---------------3--|-------------------|--------------------------|
----1-----------------|--3------------------|----3--------------|--------------------------|
-------------------0--|--0--------0---------|-------------------|--7--7--7--7--7--7--7--7--|
----------------------|--0------------------|-------------------|--------------------------|
----------------------|--2------------------|-------------------|--5--5--5--5--5--5--5--5--|
----------------------|--3------------------|-------------------|--------------------------|


                                                                               
--------------------------|-------------------------|-------------------------|
--------------------------|-------------------------|-------------------------|
--7--7--7--7--7--6--6--5--|--5----5--5--x--x--5--5--|------------------x--5-5-|
--------------------------|-------5--5--x--x--5--5--|------------------x--5-5-|
--5--5--5--5--5--4--4--3--|--3----3--3--x--x--3--3--|------------------x--3-3-|
--------------------------|-------------------------|------4--4--4--4---------|


                                                                          
-------------------------|---------------------------|-------------------|
-------------------------|---------------------------|-------------------|
--5----5--5--5--5--5--5--|--5--5--5--12----12--12\---|-------------------|
--5----5--5--5--5--5--5--|--5--5--5------------------|--5----------------|
--3----3--3--3--3--3--3--|--3--3--3--10----10--10\---|--5----------------|
-------------------------|---------------------------|--3----------------|


                                                                                  
--------------------------|--------------------------|---------------------------|
--------------------------|--8-----------------------|---------------------------|
-------------7--7--7h9h11-|-----9--11--7--9--12~-----|--------12----7--7--7h9h11-|
--5-----------------------|--------------------------|---------------------------|
--5-----------------------|--------------------------|---------------------------|
--3-----------------------|--------------------------|---------------------------|


                                                                                    
----------------------------|---------------------------|--------------------------|
--8-------------------------|---------------------------|--8-----------------------|
-----9--11--7--9--12~---12r-|----------12--7--7--7h9h11-|-----9--11--7--9--12~-----|
----------------------------|---------------------------|--------------------------|
----------------------------|---------------------------|--------------------------|
----------------------------|---------------------------|--------------------------|


                                                                                   
----------------------------|-------------------------|---------------------------|
----------------------------|--3----------------------|---------------------------|
--12~-----12-------0--0h2h4-|-----0--2--0--2r2p0------|--0----0--0----0--0--0h2h4-|
----------------5-----------|-------------------------|---------------------------|
----------------------------|-------------------------|---------------------------|
----------------------------|-------------------------|---------------------------|


                                                                    2x
|---------------------------------|---------------------------------||
|---3-----------------------------|--3------------------------------||
|*-----0--2--2h4p2p0--0--2--0h2h4-|-----0--2--2h4p2p0--0--2--0h2h4-*||
|*--------------------------------|--------------------------------*||
|---------------------------------|---------------------------------||
|---------------------------------|---------------------------------||


                                                                                      
--------------------------------|-------------------------------|-------------------|t|
--3-----------------------------|--3----------------------------|-------------------|h|
-----0--2--2h4p2p0--0--2--0h2h4-|-----0--2--2h4p2p0--0--2h4p2h4-|--0----------------|h|
--------------------------------|-------------------------------|-------------------|e|
--------------------------------|-------------------------------|-------------------|n|
--------------------------------|-------------------------------|-------------------|d|



As I was going over the Cork and Kerry mountains
I saw Captain Farrell and his money he was counting
I first produced my pistol and then produced my rapier
I said "stand and deliver or the devil he may take you"

Yeah

I took all of his money and it was a pretty penny
I took all of his money, yeah, and I brought it home to Molly
She swore that she loved me, no, never would she leave me
But the devil take that woman, yeah, for you know she tricked me easy

Musha rain dum-a-do-dum-a-da
Whack for my daddy-o
Whack for my daddy-o
There's whiskey in the jar-o

Being drunk and weary I went to Molly's chamber
Taking Molly with me, but I never knew the danger
For about six or maybe seven, yeah, in walked Captain Farrell
I jumped up, fired my pistols, and I shot him with both barrels, yeah

Musha rain dum-a-do-dum-a-da, yeah-yeah
Whack for my daddy-o
Whack for my daddy-o
There's whiskey in the jar-o

Yeah, whiskey
Yo-ooh, whiskey

Yo-ooh, yeah-ee-yeah, ooh
Yo-oo-oo-ooh, yeah

Now some men like the fishing and some men like the fowling
And some men like to hear, to hear the cannonball a-roaring
Me I like sleeping, especially in my Molly's chamber
But here I am in prison, here I am with a ball and chain, yeah

Musha rain dum-a-do-dum-a-da, yeah-yeah
Whack for my daddy-o
Whack for my daddy-o
There's whiskey in the jar-o, yeah

Whiskey in the jar-o, yeah

Musha rain dum-a-do-dum-a-da
Musha rain dum-a-do-dum-a-da, hey
Musha rain dum-a-do-dum-a-da
Musha rain dum-a-do-dum-a-da, yeah