#------------------------------------------------------------------------------#
#       This song was tabbed by zEIO (zeio@excite.com) ICQ # 30271800          #
#          If you have any questions or comments please contact me :)          #
#------------------------------------------------------------------------------#
                                 MetallicA
                          "Where ever I may roam"
                           From: The Black Album
                  

 INTRO

||---------------------------------------------------------------------||
||o-------5-5/6-5---------8-8/10--6---5-----5-5/6-5-------------------o||
||---------------------------------------------------------------------||
||--------2-2/3-2---------5-5/7---3---2-----2-2/3-2--------------------||
||o-------------------------------------------------------------------o||
||--0---------------0---------------0----------------------------------||

|---------------------------------------------------------------|
|-------5-5/6-5----------8-8/10-10\6----5-----------------------|
|---------------------------------------------------------------|
|-------2-2/3-2----------5-5/7---7\3----2-----------------------|
|---------------------------------------------------------------|
|-0----------------0--------------------0-----------------------|


|--------||----------------------------------------------------------||-------------|
|--------||o--------------------------------------------------------o||-------------|
|--------||----------------------------------------------------------||-------------|
|--------||------------------------5-5/7-----------------------------||-------------|
|--------||o-------7-7^8-7---------------8---7-----7-7^8-7----------o||-7--8--9--10-|
|-5/20\--||--0-------------------------------0-----------------------||-5--6--7--8--|


                 TR~                               TR~    
||---------------------------------------------------------------------||
||o-------------------------------------------------------------------o||
||---------------------------------------------------------------------||
||-------------------------5-5/7------9--------------------------------||
||o-2-----7-7^8-7(8)-7-----------8----7-----7-7^8-7(8)-7---8---9---10-o||
||--0---0------------0---0------------0---0------------5---6---7---8---||

  P.M----     TR~                               TR~                    P.M------
|---------|-----------------------------------------------------------|---------|
|---------|-----------------------------------------------------------|---------|
|---------|-----------------------------------------------------------|---------|
|---------|----------------5-5/7------9-------------------------------|---------|
|-5-6-7-8-|-7^8-7(8)-7-----------8----7-----7-7^8-7(8)-7---8---9---10-|-5-6-7-8-|
|---------|----------0---0------------0---0------------5---6---7---8--|---------|

 E5                               F5
|-------------------------------------------------------------------|
|-------------------------------------------------------------------|
|-------------------------------------------------------------------|
|2------------------------------------3-----------------------------|
|2----------------------------------3-------------------------------|
|0--------------------------------1---------------------------------|


 1st VERSE

 Em                               F5
|-------------------------------------------------------------------|
|-------------------------------------------------------------------|
|------0------------------------------------------------------------|
|----2--------------------------------3-----------------------------|
|--2--------------------------------3-------------------------------|
|0--------------------------------1---------------------------3/10\-|
        And the road becomes my bride     And the road becomes my 

      
(E5)                              (Bb5)
bride  I have stripped of all but pride,        so in her I do  con-

(A5)                              (Bb5)                         
 fide,   and she keeps me satis-  fied          Gives me all I need
 

(E5)                              (Bb5)        
|---------0----------------0-----------------------------------------|
|-------------0----------------0------------3----------------3-------|
|-----------------------------------------------3----------------3---|
|---------------------------------------3----------------3-----------|
|-----2----------------2------------1----------------1---------------|
|-0----------------0-------------------------------------------------|
         And with dust in throne I crave, only knowledge will  I save 

   
(G5)                              (Bb5)           
|-------------------------------------------------------------------|
|--------3----------------3----------------3----------------3-------|
|------------3----------------3----------------3----------------3---|
|--------------------------------------3----------------3-----------|
|----1----------------1------------1----------------1---------------|
|3----------------3-------------------------------------------------|
           To the game you stay a slave             rover, wanderer



 CHORUS
 
  nomad, vagabond  call me what you will                          TR~
|----------------------------------|---------------------------------|
|----------------------------------|---------------------------------|
|----------------------------------|---------------------------------|
|----------------------------------|------5-5/7------9---------------|
|-1---1---2---3----5-6-7-8-7^8-7---|7-----------8----7-----7-7^8-7(8)|
|----------------------------------|0---0------------0---0-----------|

                                                 TR~
|--------------------------------------------------------------------|
|--------------------------------------------------------------------|
|--------------------------------------------------------------------|
|------------------3---3-------3--------3---2^3-2(3)-2---2-------2---|
|-7---8---9---10---3---3-------3--------3------------2---2-------2---|
|-5---6---7---8----1---1---1-1-1----1-1-1------------0---0---0-0-0---|

               TR~                               TR~
|---------------------------------------------------|
|---------------------------------------------------|
|------------------3---3-------3--------3-----------|
|-----2---2^3-2(3)-3---3-------3--------3---2^3-2(3)|
|-----2------------1---1---1-1-1----1-1-1-----------|
|-0-0-0---------------------------------------------|

(A5)                               (G5)
 Anywhere I roam                   Where I lay my head is home, yeah


 BREAK RIFF
                TR~                               TR~                    P.M------ 
||---------------------------------------------------------------------||---------|
||o-------------------------------------------------------------------o||---------|
||---------------------------------------------------------------------||---------|
||-------------------------5-5/7------9--------------------------------||---------|
||o-2-----7-7^8-7(8)-7-----------8----7-----7-7^8-7(8)-7---8---9---10-o||-5-6-7-8-|
||--0---0------------0---0------------0---0------------5---6---7---8---||---------|


 2nd VERSE

E5                               F5
|-------------------------------------------------------------------|
|-------------------------------------------------------------------|
|-------------------------------------------------------------------|
|2-------------------------------------3----------------------------|
|2-----------------------------------3------------------------------|
|0---------------------------------1--------------------------3/10\-|
        And the earth becomes my throne     And the earth becomes my

(E5)                              (Bb5)
 throne   I adapt  to  the    un- known         Under wandering stars i've
 
(A5)                              (Bb5)  
grown  by my self   but   not     alone         I ask no one


(E5)                              (Bb5)
|---------0----------------0-----------------------------------------|
|-------------0----------------0------------3----------------3-------|
|-----------------------------------------------3----------------3---|
|---------------------------------------3----------------3-----------|
|-----2----------------2------------1----------------1---------------|
|-0----------------0-------------------------------------------------|
         And my ties are severed  clean  the  less I have the more I 


   
(G5)                              (Bb5)           
|-------------------------------------------------------------------|
|--------3----------------3----------------3----------------3-------|
|------------3----------------3----------------3----------------3---|
|--------------------------------------3----------------3-----------|
|----1----------------1------------1----------------1---------------|
|3----------------3-------------------------------------------------| BACK TO CHOURUS
 gain        off the beaten path  reign             rover, wanderer


 INTERLUDE

              TR~      TR~
|-----------------------------------------------------------------------|
|-----------------------------------------------------------------------|
|-------------------------------9-------------------------8-9-11/12-8---|
|------------------6-7-6(7)-9-10-----------------6-7--9-10--------------|
|-2----/7-7-8-7(8)-------------------2-------7-8------------------------|
|-0---0------------------------------0---0-0----------------------------|

              TR~       TR~
|-----------------------------------------------------------------------|
|-------------------------------8-------------------------7-8-10-12-7---|
|------------------4-5-4(5)-8-9-9----------------4-5--8-9-8-9-11-12-8---|
|---------6-7-6(7)-6-7-6(7)-9-10-------------6-7-6-7--9-10--------------|
|-2---2---7-8-7(8)-------------------2---2---7-8------------------------|
|-0---0-0----------------------------0---0-0----------------------------|
* two guitars

                                TR~
|----------------------------------------------------|
|----------------------------------------------------|
|----------------------------------------------------|
|--3---3-------3--------3---2^3-2(3)-2---2-------2---|
|--3---3-------3--------3------------2---2-------2---|
|--1---1---1-1-1----1-1-1------------0---0---0-0-0---|

              TR~                               TR~
|---------------------------------------------------|
|---------------------------------------------------|
|------------------3---3-------3--------3-----------|
|-----2---2^3-2(3)-3---3-------3--------3---2^3-2(3)|
|-----2------------1---1---1-1-1----1-1-1-----------|
|-0-0-0---------------------------------------------|

(A5)                               (G5)
 Anywhere I roam                   Where I lay my head is  home,yeah


 SOLO


 OUTRO CHOURUS
                                TR~
|----------------------------------------------------|
|----------------------------------------------------|
|----------------------------------------------------|
|--3---3-------3--------3---2^3-2(3)-2---2-------2---|
|--3---3-------3--------3------------2---2-------2---|
|--1---1---1-1-1----1-1-1------------0---0---0-0-0---|

              TR~                               TR~
|---------------------------------------------------|
|---------------------------------------------------|
|------------------3---3-------3--------3-----------|
|-----2---2^3-2(3)-3---3-------3--------3---2^3-2(3)|
|-----2------------1---1---1-1-1----1-1-1-----------|
|-0-0-0---------------------------------------------|


(A5)                              (G5)
 Anywhere I roam                   Where I lay my head is home

(C5)                               (B5)             (Bb5)
 Carved upon my stone           my body lie, but    still I roam yeah yeah

Then play break riff with parts of the solo and fade out