Where The Wild Things Are
 as performed on reload


eb-------------------------------------  -------
Bb-------------------------------------  -------
Gb--4-4--4-4--4-----4--4-----3--3-----0  -------
Db--5-5--5-5----5-2------5-2------5-2--  -------
Ab-------------------------------------  -------
Eb-------------------------------------  -0-3~~0

   Guitar 1            Guitar 2
Gb--4-4-4-4------  --------------
Db--5-5-5-5-----9  --------------
Ab--------------7  -5-5-5-5-----2
Eb----------0-0--  -3-3-3-3-0-0-0


Gb-------------------4\1
Db--5-5-5-5-5-5-5-2--5\2
Ab--5-5-5-5-5-5-5-2-----
Eb--3-3-3-3-3-3-3p0-----
"Steal dreams and give to you."
                   x2		x1
Gb--------------------		-------------------
Db--7-7--6-6----------		-7-7--6-6--4-4--5-5
Ab--5-5--4-4--8-8--5-5		-5-5--4-4--2-2--3-3
Eb------------6-6--3-3		-------------------
chorus


This is my home made tab, I just wrote down what I heard, METAL UP YOUR ASS  
Arnold
 

Solo: Where The Wild Things Are, by: Jon Symons.

With wah

------------------------------------
------------------------------------
-9-9-/--10-10-/12-/13--/12-12-------
------------------------------------ 2x
-7-7-/--8---8--/10-/11--/12-12------
------------------------------------


----------------------------------------------
----------------------------------------------
-9-9-/-10-10-/12-/13/14-14-/--17\16\17\16-----
----------------------------------------------
-7-7-/-8---8--/10-/11/12-12-/--15\14\15\14----
----------------------------------------------


-----------------------------------------------------------------------
-15-------15-------------15----------15----15--------------------------
-14b16----14b16r---------14b16-------14b16-14b16----14b16--------------
-------------------14~--------------------------------------14---14----
-----------------------------------------------------------------------
-----------------------------------------------------------------------


-------------------         ---------------------15---------------
-15----------------         --15-----15---15---------15-----------
-14b-r--------2x---         --12--h--14---14b16-----------14b16---
--------14---------         -------------------------------------- 
-------------------         --------------------------------------
-------------------         --------------------------------------


---------------------------------------
--15-----------------------------12\\\-
--14b16r-p12---14b16rp12---------12\\\-
---------------------------14----------	2x
---------------------------------------
---------------------------------------


--------------------------------------------------------15------------------
--/////15-------15-------15-------15------------15--17------17--15------15--
-----------16~------16~------16~------16~---------------------------16------
----------------------------------------------------------------------------
----------------------------------------------------------------------------
----------------------------------------------------------------------------


----------------------------------------------------------------------------
--15-15-----14--14------11----11--12--12--------15-15-15-15p14--------------
--17-b-17-b-16b-16b-----13b---13b-14b-14---17b-------------------14---------
---------------------------------------------------------------------14~~~--
----------------------------------------------------------------------------
----------------------------------------------------------------------------


----------------------------------------------------
----------------------------------------------------
----16\15----16\15--------------12b-----------------
---------------------------------------------14-----
----13\12----13\12----------------------------------
----------------------------------------------------


---------------------------------------12---------12-----
----15-15-15-15p14---------------------15b--------15b----
----------------------14---------------------------------
----------------------------14---------------------------
---------------------------------------------------------
---------------------------------------------------------