METALLICA - WASTING MY HATE
===========================

From the album "Load" - Written by Hetfield, Ulrich & Hammett

Transcribed by Marco (fixxxer@libero.it)


Tune down 1/2 step:

6=Eb    3=Gb            Moderate Rock: 148 BPM
5=Ab    2=Bb
4=Db    1=Eb


CHORDS:

  E5:     F5:     D5:     F5k:    E5k:
|-----| |-----| |-----| |-----| |-----|
|-----| |-----| |-----| |-----| |-----|
|--9--| |-10--| |--7--| |-----| |-----|
|--9--| |-9---| |--7--| |--3--| |-----|
|--7--| |-8---| |--5--| |--3--| |-----|
|-----| |-----| |-----| |--1--| |-----|


Intro: clean tone (Guitar I)

              Riff A.   h     h            p                 h
||-----------|--------------------|------------------|--------------------|
||-----------|--------------------|------------------|--------------------|
||--X--------|--------------------|------------------|--------------------|
||-----X-----|--------------------|------------------|--------------------|
||--------X--|--------------5--7--|--7---7--5-----5--|--5--------5--------|
||-----------|--0--0--5--7--------|------------7-----|-----5--7-----5-----|
Backwards rake-|


     p         p             h     h            p                h     h
|--------------------|-----------------|------------------|---------------|
|--------------------|-----------------|------------------|---------------|
|--------------------|-----------------|------------------|---------------|
|--------------------|-----------------|------------------|---------------|
|--------------------|-----------5--7--|--7---7--5-----5--|--5-------5----|
|--5--0--3--5--7--0--|--0--5--7--------|------------7-----|----5--7-----5-|

     p      b1/2
|---------------------||
|---------------------|| (End Riff A.)
|---------------------||
|---------------------||
|---------------------||
|--5--0--5--3------0--||



Chorus: w/Riff A.

Good day,____  how do,____ and I send__ a smile___ to you___


Don't___  waste,  waste__ your breath, and I won't waste


        p      h
|-------------------------||    
|-------------------------||    (Guitar I)
|-------------------------||
|-------------------------||
|-------------------------||
|--5--5--0---3--5--7---0--||
      my hate__ on you.



Faster (168 BPM)

Guitar I & II (dist. tone)

   p.m         p.m        p.m         p.m        p.m
|-----------|----------------------|----------------------||
|-----------|----------------------|----------------------||
|-----7--9--|-----7--9-------7--9--|-----7--9-------7--9--||
|-----7--9--|-----7--9-------7--9--|-----7--9-------7--9--||
|--0--5--7--|--0--5--7----0--5--7--|--0--5--7----0--5--7--||
|-----------|----------------------|----------------------||


Guitar I

 Riff B
          p.m      p.m      p.m      p.m      p.m      p.m      p.m
|------------------------|--------------------------|---------------------|
|------------------------|--------------------------|---------------------|
|------------------------|--------------------------|---------------------|
|------------------------|--------------------------|---------------------|
|------7-----7--6-----5--|--------------------------|---------------------|
|--0------0--------0-----|--0--0--7--7--7--6--0--5--|--5--5--5--0--5--4---|

             p.m               p.m  p.m      p.m      p.m      p.m     p.m
|----------------------------|---------------------|----------------------|
|----------------------------|---------------------|----------------------|
|----------------------------|---------------------|----------------------|
|----------------------------|---------------------|----------------------|
|--5-/-7--7-----5-/-7--7-----|----7----7--6-----5--|----------------------|
|--3-/-5--5--0--3-/-5--5--0--|-0----0--------0-----|--0--0--7--7--7--6--0-|

            p.m     p.m            p.m
|----------------------|---------------------------|
|----------------------|---------------------------| (End Riff B.)
|----------------------|---------------------------|
|-----X----------------|---------------------------|
|-----X----------------|-5-/-7--7-----5-/-7--7-----|
|--5--X--5--0--5--4--0-|-3-/-5--5--0--3-/-5--5--0--|
                                             Yeah.


 Guitars I & II

        p.m   p.m      p.m      p.m      p.m      p.m     p.m    p.m   p.m
||---------------------------|--------------------------|-----------------|
||---------------------------|--------------------------|-----------------|
||*--------------------------|--------------------------|-----------------|
||*--------------------------|--------------------------|-----------------|
||---------7-----7--6-----5--|--------------------------|---------------5-|
||---0--0-----0--------0-----|--0--0--7--7--7--6--0--5--|-5--5--5--0--4-3-|


|----------------------------    |--------------------------------
|1.          p.m                 |2.
|----------------------------||  |--------------------------------|
|----------------------------||  |--------------------------------|
|---------------------------*||  |--------------------------------|
|---------------------------*||  |--------------------------------|
|--5-/-7--7-----5-/-7--7-----||  |--5--/--7--7-----5--/--7--7-----|
|--3-/-5--5--0--3-/-5--5--0--||  |--3--/--5--5--0--3--/--5--5--0--|


Listen to record for chords timing.
(see chords on top of tab)

1st Verse:

(Rhy. Fig. 1)

E5              F5           E5                 F5
Ain't gonna waste my hate,     ain't gonna waste my hate on you

E5              F5        A  D5  E5    A  D5  E5    A  D5  E5
I think I'll keep it for my                 self._____________________

A  D5  E5   A  D5  E5.


 Riff C. (Guitar III)
|--------------------------|--------------------------|-------------------|
|--------------------------|--------------------------|-------------------|
|--------------------------|--------------------------|-------------------|
|--------------------------|--------------------------|--0--0--0--0--0--0-|
|--------------------------|--------------------------|-------------------|
|--0--0--0--0--0--0--0--0--|--1--1--1--1--1--1--1--1--|-------------------|
            Ain't gonna give no more                        ain't got time


|--------------------------|--------------------------|----------------|
|--------------------------|--------------------------|----------------|
|--------------------------|--------------------------|----------------|
|--------------------------|--------------------------|----------------|
|--0--0--0--0--0--0--0--0--|--------------------------|----------------|
|--------------------------|--0--0--0--0--0--0--0--0--|--1--1--1--1--1-|
   to help you score.            I think it's time you pleased yourself.

                                                (End Riff C.)
                                                 Guitar III out.       
        

A  D5  E5     A  D5  E5     A  D5  E5     A  D5  E5.        w/Riff A.
                                           yourself.        (1st 4 bars only)


Hlaf Time Feel
Chorus

%S%

 Riff A1 (Guitars I & II)                                     End Riff A1.  

          h     h           p                h              p         p
|-------------------|-----------------|----------------|--------------------|
|-------------------|-----------------|----------------|--------------------|
|-------------------|-----------------|----------------|--------------------|
|-------------------|-----------------|----------------|--------------------|
|-------------5--7--|-7---7--5-----5--|-5--------5-----|--------------------|
|-0--0--5--7--------|-----------7-----|----5--7-----5--|--5--0--3--5--7--0--|
         Good day_______   how do and I   send a smile      to you


 Guitar II  w/Riff A1.

        h     h         b1/2                                   h
|-----------------|------------------|--------------|------------------|
|-----------------|------------------|--------------|------------------|
|-----------------|------------------|--------------|------------------|
|-----------------|------------------|--------------|------------------|
|-----------5--7--|--7--9---9--7--9--|--9--9--9--7--|--7--7--5--7--7---|
|--0--5--7--------|------------------|--------------|----------------0-|
   Don't waste   waste your breath     and I won't waste my hate on you


                           2nd time to Coda I
                           3rd time to Coda II
                                                   (end Half Time feel)
|------------------------|-----------------------|---------------------|
|------------------------|-----------------------|---------------------|
|------------------------|-----------------------|---------------------|
|------------------------|-----------------------|---------------------|
|------------------------|-----------------------|---------------------|
|--(0)-------------------|--(0)------------------|---------------------|
   Waste my hate on ____               you.____                 Hate !


w/Riff B (Guitars I & II)


Listen to record for chords timing.
(see chords on top of tab)

2nd Verse:


E5              F5           E5                 F5
Think you're worthy now?      You think enough even raise the brow

E5              F5        A  D5  E5    A  D5  E5    A  D5  E5
and to laugh and tip the two pronged_  crown ?                        

A  D5  E5   A  D5  E5.


w/Riff C

E5k
Well I see my hands I see my feet

D5                              F5k
I feel that blood that pumps in beat

E5k                     A  D5  E5     A  D5  E5    A  D5  E5
But where the hell's my mind goin' now?

D5   E5
Dead gone now.


w/Riff A. (1st 4 bars only) Guitars I & II            D.S. al Coda I
                                                                 %S%


Coda I:
|-------|-----|----------------------------------|---------------------|
|-------|-----|----------------------------------|---------------------|
|-------|-----|----------------------------------|---------------------|
|-------|-----|----------------------------------|---------------------|
|-------|-----|----------------------------------|---------------------|
|--(0)--|--0--|--(0)-----------------------------|--(0)----------------|
                Think I'll keep it for my self


    p.m      p.m      p.m         p.m      p.m
||---------------------------|--------------------------||
||---------------------------|--------------------------||  4 times.
||*-----7--9-----7--9-----7--|--9-----7--9-----10--10--*||
||*-----7--9-----7--9-----7--|--9-----7--9-----10--10--*||
||---0--5--7--0--5--7--0--5--|--7--0--5--7--0---8---8---||
||---------------------------|--------------------------||



Listen to record for chords timing.
(see chords on top of tab)


3rd Verse:


E5  E5k                         F5k  E5k                            F5k
    Ain't gonna waste my hate             But I'm so greedy when they say

E5k                        A  D5  E5    A E5 D5  A E5 D5  A E5 D5  A D5 E5
    Better to give than to receive

w/Riff C.

E5k                           D5                        A5          F5k    
    Ain't gonna waste my hate no. Ain't got time to waste my hate on you

E5k                          A5 D5 E5
    I think I'll keep it all for my


  p.m                 * Guitar II indicated to left of slashes in TAB
|--------------------------------|-------------------------------------|
|---------------------*----------|-------------------------------------|
|-----7--9----12-----12/7--12/9--|--12--12--12--12--12--12--12--12-----|
|-----7--9----12-----12/7--12/9--|--12--12--12--12--12--12--12--12-----|
|--0--5--7-----0--------5-----7--|-------7---7---7---7---7---7---7-----|
|--------------------------------|-------------------------------------|
 self___________


w/Riff A. (1st 4 bars only) Guitars I & II            D.S. al Coda II


Coda II:
|-------------|-----|-------|-------|----------------------------------|
|-------------|-----|-------|-------|----------------------------------|
|-------------|-----|-------|-------|----------------------------------|
|-------------|-----|-------|-------|----------------------------------|
|------15--\--|-----|-------|-------|----------------------------------|
|-(0)--15--\--|--0--|--(0)--|--(0)--|--(0)--(10)--/--(24)--------------|
                  Think I'll keep it for my self             Yeah!


Guitars I & II

  p.m      p.m      p.m         p.m      p.m
|--------------------------|----------------------------||
|--------------------------|----------------------------||
|-----7--9-----7--9-----7--|--9-----7--9--------10--10--||
|-----7--9-----7--9-----7--|--9-----7--9--------10--10--||
|--0--5--7--0--5--7--0--5--|--7--0--5--7--0--0---8---8--||
|--------------------------|----------------------------||
                                                Hate !