Metallica - TUESDAY'S GONE - Garage Inc.
( Originally recorded by Lynryd Skynryd )

Tabbed by Manuel Gutirrez Rojas

April the 8th 2002

Hello Everyone, well it's been a while since I tabbed a 'tallica song,
but because many keep asking me to tab Tuesday's Gone out.
So here it is. I've transcribed the main riffs, I haven't included the end 
solo.

Enjoy.

Things to know

["_3_"] 	= triplet
[#]             = rest
[/]		= slide up
[\]		= slide down
[d]	    	= strum downwards
[u]     	= strum upwards
[p]	        = pull-off
[h]	      	= hammer-on
[x]   		= mute
[ {?} ]		= natural harmonic from x tone (you have to replace the ? by a tone
[b(1/4)]	= bend a quarter tone up
[b(1/2)]	= bend up half a tone
[b(1)]		= bend up a whole tone

[ G||o-- ]      = o stands for: repeat. You see those at the beginning and 
at the end of
[ D||o-- ]        o something that has to be repeated and the end it also 
says how many times.


[~]           	= vibrato/ (Classic vibrato:   vibrate your finger left and 
right (horizontally)
                         \ (Modern vibrato:    vibrate your fingers up and 
down (vertically)
                  		   Use classic vibrato for weak vibrations, and the 
Modern for
                  		   heavier ones.
1 2 3 4 <-------- = are numbers I included for what the most comfortable 
playing is.
-------             which indicates which finger to use: 1=index, 2=middle , 
3=ring, 4= little

Chords:-----------------------------------------
  A      E      F#m    D       G    Dsus2  Dsus4
--0---|--0---|--2---|--2---|---3--|-0----|-3----|
--2---|--0---|--2---|--3---|---3--|-3----|-3----|
--2---|--1---|--2---|--2---|---4--|-2----|-2----|
--2---|--2---|--4---|--0---|---5--|-0----|-0----|
--0---|--2---|--4---|------|---5--|------|------|
------|--0---|--2---|------|---3--|------|------|
-------------------------------------------------

All Guitars Tuned Dis (Tuned down half a step)

Intro:

Guitar 1 Time: 0:06

      A                  E                  F#m                 D
D#||1/2---------------|------------------|-------------------|---------------------|
A#||------------------|------------------|-------------------|---------------------|
F#||---------5b(1/2)r-|--4-------4b(1/2)r|--4-2------2b(1/2)-|-----------------2-4-|
C#||------------------|------------------|-------------------|--4--------2-4-5-----|
G#||------------------|------------------|-------------------|---------5-----------|
D#||------------------|------------------|-------------------|---------------------|


  A                    E                Dsus2 riff
--------------------|----------------|-----0--------0-----|-----0----------------------|
--------------------|----------------|--------3--------3--|--------3-------------------|
--4b(1/2)---4b(1/2)r|--4-2-----------|--------------------|-----------4b(1/2)r-4b(1/2)r|
--------------------|----------------|--0--------0--------|--0-------------------------|
--------------------|----------------|--------------------|----------------------------|
--------------------|----------------|--------------------|----------------------------|


  A                             E                                  F#m
-----------------------------|----------------------------------|----------------|
-----------------------------|----------------------------------|----------------|
--2------4b(1/2)r---4b(1/2)r-|---------4b(1/2)-4b(1/2)-5b(1/2)r-|-------------2--|
-----------------------------|--2-------------------------------|--4-------------|
-----------------------------|----------------------------------|----------------|
-----------------------------|----------------------------------|----------------|


  D                            A                             E
----------------------------|-----------------------------|--------------------|
----------------------------|-----------------------------|-------------5/7----|
--------------------------4-|--4b(1/2)r-----4b(1/2)r---2--|--4--------------9--|
-------------------2-4-5----|-----------------------------|--------------------|
--5--4-5--4-2--4-5----------|-----------------------------|--------------------|
----------------------------|-----------------------------|--------------------|

                   Riff B
  Dsus2            Dsus2
---------------| |------------------|---------------|
---------------| |--------------7---|---------------|
--7------------| |----------6/7---7-|---------------|
---------------| |------------------|--7------------|
---------------| |------------------|---------------|
---------------| |------------------|---------------|


Guitar 2 Time: 0:06
      A                  E                  F#m
D#||--9------9--10----|------------------|--------------------|
A#||------------------|--12--------12b---|--12-10---------12b-|
F#||------------------|------------------|--------------------|
C#||------------------|------------------|--------------------|
G#||------------------|------------------|--------------------|
D#||------------------|------------------|--------------------|


  D                      A                 E
----------------------|--9--------------|--------------------|
--------------10--12--|-----------12b---|--12-10-------12b---|
--11------11----------|-----------------|--------------------|
----------------------|-----------------|--------------------|
----------------------|-----------------|--------------------|
----------------------|-----------------|--------------------|


Riff D*
-----12---------12------|-----12------------|
---------15---------15--|---------15--------|
------------------------|-------------------|
--0----------0----------|--0----------------|
------------------------|-------------------|
------------------------|-------------------|

A             E   F#m             D
   Train roll on,     on down the line
          A                E         Dsus2 riff   (Riff B)
Won't you   please take me far...far away
A                       E     F#m             D
   Now, I feel the wind blow       outside my door
A            E        Dsus2 riff
  I leave my woman at home

Chorus #1----------------------------
A           G             D   Dsus4 D
  Tuesday's gone with the wind
A           E             Dsus2 riff
  My baby's gone with the wind
-------------------------------------

Time 1:48
A                             E                            F#m               
                D
---------------------------|----------------------------|--------------------------------|----------------|
---------------------------|----------------------------|-------------5------------------|----------------|
--------4b(1/2)---4b(1/2)r-|--2------4b(1/2)r---4b(1/2)-|---------4b(1/2)----4b(1/2)r2-4-|-------------2--|
---------------------------|----------------------------|--2-----------------------------|--4-------------|
---------------------------|----------------------------|--------------------------------|----------------|
---------------------------|----------------------------|--------------------------------|----------------|


  A                             E                                D*
-----------------------------|--------------------------------|----------------------|
-----------------------------|--------------------------------|---------------5/7----|
-------------------------2-4-|--4b(1/2)-4b(1/2)---5b(1/2)-----|--4/-6/4-----------9--|
-------------------2-4-5-----|--------------------------------|----------------------|
--5--4-5--4-5--4-5-----------|--------------------------------|----------------------|
-----------------------------|--------------------------------|----------------------|

                Riff B

---------------|------------------|---------------|
---------------|--------------7---|---------------|
--7------------|----------6/7---7-|---------------|
---------------|------------------|--7------------|
---------------|------------------|---------------|
---------------|------------------|---------------|

A              E       F#m           D
   And I don't know oh     where I'm going
A                 E       Dsus2 riff    (Riff B)
   I just want to be left alone
A                 E    F#m
  When this train ends,    I'll try again
A            E        Dsus2 riff
  I leave my woman at home
           A
My baby is gone

Chorus #2-----------------------------
A           G             D    Dsus4 D
  Tuesday's gone with the wind
A           G             D    Dsus4 D
  Tuesday's gone with the wind
A           G             D    Dsus4 D
  Tuesday's gone with the wind
A           E             Dsus2 riff
  My baby's gone with the wind
--------------------------------------

Solo
A, E, F#m, D, A, F#m, G
A, E, F#m, D, A, F#m, G

Chorus #2

A              F#m                 D
Train roll on, many miles from my home
A                    E              Dsus2 riff
  See, I'm riding my blues... blues away
A             E    F#m               D
Tuesday, you see,     she had to be free
A         E                      Dsus2 riff
  But somehow, I've got to carry on

Chorus #2

A, E, F#m, D
A, E, Dsus2 riff

Repeat till end.

In the end all soloing is improvisation, I'm trying to transcribe the 
harmonica part, but
you have to play fast, to be able to play that solo, because it wasn't of 
course meant
to play on guitar.

So you could improvise yourself, using these scales.

In the Verses you could use both Amajeur Melodic/Pentatonic or Aminor 
Pentatonic scales, though I prefer Amajeur.
In the chorus however, the Aminor pentatonic scale suits the chords a lot 
better.

Amajeur Melodic/Pentatonic scales (actually G#smajeur/Pentatonic)
(x) = a tone which is in the majeur scale, without playing them your in the
pentatonic Majeur scale.

D#||----------------------------2(4)5-|---------------------------(4)5-7-|
A#||----------------------2(3)5-------|---------------------(3)5-7-------|
F#||---------------(1)2-4-------------|------------------4-6-------------|
C#||------------2-4-------------------|------------4(6)7-----------------|
G#||------2(4)5-----------------------|------4(5)7-----------------------|
D#||-(2)5-----------------------------|--5-7-----------------------------|



-------------------------------7-9-|
------------------------7(9)10-----|
------------------6(7)9------------|
-----------(6)7-9------------------|
-----(5)7-9------------------------|
--7-9------------------------------|



---------------------------------------9(10)|
------------------------------(9)10-12------|
--------------------------9-11--------------|
------------------9-11(12)------------------|
----------9(11)12---------------------------|
--9(10)12-----------------------------------|



----------------------------------------(10)12-14-||
-----------------------------------12-14----------||
--------------------------11(13)14----------------||
-----------------11(12)14-------------------------||
-------(11)12-14----------------------------------||
--12-14-------------------------------------------||


Aminor Pentatonic (actually G#minor Pentatonic)
[x] = the tone A

D#||---------------------[5]8-|--------------------------8-10-|
A#||------------------5-8-----|---------------------8[10]-----|
F#||--------------5-7---------|-----------------7-9-----------|
C#||----------5[7]------------|-----------[7]10---------------|
G#||------5-7-----------------|-------7-10--------------------|
D#||--[5]8--------------------|--8-10-------------------------|



-------------------------------10-12-|--------------------------------12-15-||
------------------------[10]13-------|--------------------------13-15-------||
--------------------9-12-------------|--------------------12[14]------------||
--------------10-12------------------|--------------12-14-------------------||
--------10[12]-----------------------|-------[12]15-------------------------||
--10-12------------------------------|--12-15-------------------------------||

Any Comments are welcome :-)

Manuel Gutierrez Rojas

le_mystique_1@hotmail.com
www.geocities.com/le_mystique_1