============================================================================
                  Title : Trapped Under ice
                 Artist : Metallica
          Words & Music : James Hetfield, Lars Ulrich & Kirk Hammett
                  Album : Ride The Lightning
         Transcribed by : Christian Theves
 The Metallica Tab Page : http://www.metallica-tabs.net
============================================================================


Tempo=120

Intro:

e-|------------------|--------------------|------------|--------------|
B-|------------------|--------------------|------------|--------------|
G-|------------------|-------------2------|-(2)--------|--------------|
D-|-------0---2------|--------0----2------|-(2)--------|--4-4-4-4-4---|
A-|-------0---2------|-------------0------|-(0)--------|--2-2-2-2-2---|
E-|-0--0-------------|--0--0--------------|------------|--------------|
    PM..|	       PM..|				 PM.....|

Rhy Fig 1			   end Rhy Fig 1
||--------------------|-------------------------||
||--------------------|-------------------------||
||o-------------------|------------------------o||
||o--------0---2------|--------0---2-0--3--3---o||
||---------0---2------|--------0---2-0--3--3----||
||---0--0-------------|--0--0-------------------||


w/ Rhy Fig 1 (4 times)
|----------------|----------------|----------------|
|----------------|----------------|----------------|
|----------------|--11------------|--12------------|
|----------------|--11------------|--12------------|
|----------------|---9------------|--10------------|
|----------------|----------------|----------------|

|-----------------------|----------------|----------------|
|-----------------------|----------------|----------------|
|--14------/17----16----|--9-------------|--11------------|
|--14------/17----16----|--9-------------|--11------------|
|--12------/15----14----|--7-------------|---9------------|
|-----------------------|----------------|----------------|


|----------------|------------------------|
|----------------|------------------------|
|--12------------|--14--------------------|
|--12------------|--14--------------------|
|--10------------|--12----/19--19-~-~-~-~-|
|----------------|------------------------|


Solo 1

w/ Rhy Fig 2 (3 times) (see below)
|---------14-------14------14------14---------14----14-|
|--17b19------17b19---17b19---17b19-----17b19----17----|
|------------------------------------------------------|
|------------------------------------------------------|
|------------------------------------------------------|
|------------------------------------------------------|


|-17p14-14-14-17p14-------------------------------|
|-------------------17-14-14-14-17p14-------------|
|-------------------------------------16-14-14-14-|
|-------------------------------------------------|
|-------------------------------------------------|
|-------------------------------------------------|


|-------------------------------------|-----------------------------14--|
|--17------17------17------17----17---|----------p14--17b19----/17------|
|--16b18---16b18---16b18---16b18-16b18|-----r16--p14--------------------|
|-------------------------------------|---------------------------------|
|-------------------------------------|---------------------------------|
|-------------------------------------|---------------------------------|


|-18-16-14-12-15-14-12-10-14-12-10-9-12-12-10-9\7-9-|
|---------------------------------------------------|
|---------------------------------------------------|
|---------------------------------------------------|
|---------------------------------------------------|
|---------------------------------------------------|


|-10-9-7-7\5-9-9-7-5-5\4-7-7-5-4-2-5-4-2-0-5p-|
|---------------------------------------------|
|---------------------------------------------|
|---------------------------------------------|
|---------------------------------------------|
|---------------------------------------------|
 

w/ Rhy Fig 2 (1st bar only)			 w/ Rhy Fill 1
						     Harm.
|-4p2p0-5p4p2p0-5p4p2p0-2p0---------------------|--------------------|
|---------------------------3p2p0-5p2p0-0-2h3p0-|--------------------|
|-----------------------------------------------|--0--2.6-\----------|
|-----------------------------------------------|----------\---------|
|-----------------------------------------------|-----------\--------|
|-----------------------------------------------|-------trem. bar----|


 _______________________________________________________________________
|									|
|  Here's Rhy Fig 2 and Rhy Fill 1					|
|									|
|   Rhy Fig 2					      end Rhy Fig 2	|
|  |---------------------------------|-----------------------------|	|
|  |---------------------------------|-----------------------------|	|
|  |---------------------------------|-----------------------------|	|
|  |---------------------------------|-----------------5--4--2--4--|	|
|  |-4---------------4---------------|-4---------------3--2--0--2--|	|
|  |-0h2-2-2-2-2-2-2-0h2-2-2-2-2-2-2-|-0h2-2-2-2-2-2-2-------------|	|
|    PM...............................................|			|
|									|
|									|
|   Rhy Fill 1		end Rhy Fill 1					|
|  |---------------------------------|					|
|  |---------------------------------|					|
|  |---------------------------------|					|
|  |-------------------------4-/5----|					|
|  |-4---------------2-2-2-2-2-/3----|					|
|  |-0h2-2-2-2-2-2-2-----------------|					|
|    PM.....................|						|
|_______________________________________________________________________|


1st, 2nd, 3rd verses

S/S
w/Rhy Fig 2 (4 times)

I don't know how to live trough this hell
Woken up, I'm still locked in this shell
Frozen soul, frozen down to the core
Break the ice, I can't take anymore


 Chorus

 Rhy Fig 3
|-------------|--------------------|-------------|-------------------------|
|-------------|--------------------|-------------|-------------------------|
|-------------|--------------------|-------------|-------------------------|
|--6--7-------|--6--7-------2------|--6--7-------|--6--7----------7--7-----|
|--6--7-------|--6--7-------2------|--6--7-------|--6--7----------7--7-----|
|--4--5-------|--4--5----0--0------|--4--5-------|--4--5----0--0--5--5--0--|

							 2nd time to Coda 1
					 end Rhy Fig 3	 3rd time to Coda 2
|-------------|-------------------------|-------------|--------------------|
|-------------|-------------------------|-------------|--------------------|
|-------------|-------------------------|-------------|--------------------|
|-------------|--4--5----------5--5-----|--6--7-------|--7-----------------|
|--4--5-------|--4--5----------5--5-----|--6--7-------|--7--8----7--7------|
|--2--3-------|--2--3----0--0--3--3--0--|--4--5-------|--5--6----5--5------|


Solo 2 

		dive with trem. bar
|----------------------------------|-----------------------|
|----------------------------------|-----12------------17--|
|--3p0h2p0h2p0h2p0h2p0h2p0h2p0h2p0-|--0--------------------|
|----------------------------------|-----------------------|
|----------------------------------|-----------------------|
|----------------------------------|-----------------------|


|----------------------------------------------------14-|
|-18p14-18p14-18p17p14----18p14-17p14-14-14-17p14-14----|
|----------------------16-------------------------------|
|-------------------------------------------------------|
|-------------------------------------------------------|
|-------------------------------------------------------|


|-17-17-16-16-14-14-------------------------------------------|
|--------------------17-17-16-16-14-14------------------------|
|--------------------------------------16-14----14------------|
|--------------------------------------------16---------------|
|---------------------------------------------------16--12----|
|-------------------------------------------------------------|


|-------------------------------------------------|
|-------------------------------------------------|
|------------------------------------------14-16--|
|------------------14-14-16p14----16-16-16--------|
|-------12-12-/16--------------16-----------------|
|-12h14-------------------------------------------|


|----------------------------------|------------------------------------|
|--17------17------17------17------|------------------------------------|
|--16b18---16b18---16b18---16b18---|------14-14-14\-----14-14\------14\-|
|----------------------------------|--16------------/16--------/16------|
|----------------------------------|------------------------------------|
|----------------------------------|------------------------------------|

		 D.S. al Coda 1
|------------------------------|
|----------------17b19-~-~-~-~-|
|--------14--------------------|
|--/16-------14----------------|
|------------------------------|
|------------------------------|


Coda 1

 Rhy Fig 4			end Rhy Fig 4
|-----------------------|-------------------|--------------------------|
|-----------------------|-------------------|--------------------------|
|-----------------------|-------------------|--------------------------|
|--7--8-8---7--8--8-----|--5--5----7--7-----|--------------------------|
|--7--8-8---7--8--8-----|--5--5----7--7-----|--3--3--3--3--3--3--3--3--|
|--5--6-6---5--6--6-----|--3--3----5--5-----|--1--1--1--1--1--1--1--1--|
						  PM.................|


 Rhy Fig 5
||--------------------------|--------------------------|
||--------------------------|--------------------------|
||o-----------7------7------|--------------------------|
||o-----------5------5------|--------------3--2--------|
||--------------------------|--3--2--------------3--2--|
||--0--0-0-0------------0-0-|--------5--4--------------|
			PM.|	     PM..|

					    end Rhy Fig 5
|------------------------|-------------------------------||
|------------------------|-------------------------------||
|------------9------7----|------------------------------o||
|------------9------7----|------------------------------o||
|------------7------5----|--5--5-5-5--5-5-5--5-5-5--5-5--||
|--0--0-0-0------0-------|--6--6-6-6--6-6-6--6-6-6--6-6--||
   PM......|		    PM.........................|


 Rhy Fig 6						    end Rhy Fig 6
||-----------------|----------------|----------------------|-------------||
||-----------------|----------------|----------------------|-------------||
||o--9---9---9-----|--7---7---7-----|--5---5---4-----------|------------o||
||o--9---9---9-----|--7---7---7-----|--5---5---4-----------|--2---------o||
||---7---7---7-----|--5---5---5-----|--3---3---2-----------|--2----------||
||-----------------|----------------|----------------3--2--|--0----------||
						     PM..|

Bridge
w/ Rhy Fig 6 (2 times)

 Scream from my soul
 Fate, mystified
 Hell, forever more


||--------------------------|--------------------------|
||--------------------------|--------------------------|
||o-----------7------7------|--------------------------|
||o-----------5------5------|--------------3--2--------|
||--------------------------|--3--2--------------3--2--|
||--0--0-0-0------------0-0-|--------5--4--------------|
			PM.|	     PM..|

			  _______________________________
			 |1.2.3.			 |
|------------------------|-------------------------------||
|------------------------|-------------------------------||
|------------9------7----|------------------------------o||
|------------9------7----|------------------------------o||
|------------7------5----|--5--5-5-5--5-5-5--5-5-5--5-5--||
|--0--0-0-0------0-------|--6--6-6-6--6-6-6--6-6-6--6-6--||
   PM......|		    PM.........................|

 _______________________________
|4.
|-------------------------------|
|-------------------------------|
|-------------------------------|
|-------------------------------|
|--5--5-5-5--5-5-5--5-5-5--5-5--|
|--6--6-6-6--6-6-6--6-6-6--6-6--|
   PM.........................|


|-------------------------------|-------------------------------|
|-------------------------------|-------------------------------|
|-------------------------------|-------------------------------|
|-------------------------------|-------------------------------|
|-------------------------------|-------------------------------|
|--5--5-5-5--5-5-5--5-5-5--5-5--|--5--5-5-5--5-5-5--5-5-5--5-5--|
   PM.........................................................|

|-------------------------------|--------------------------|
|-------------------------------|--------------------------|
|-------------------------------|--------------------------|
|-------------------------------|--------------3--2--------|
|-------------------------------|--3--2--------------3--2--|
|-5-5-5-5-5-5-5-5-5-5-5-5-5-5-5-|--------5--4--------------|
  PM...........................|	 PM..|

Solo 3

|-19p17p14-19p17p14----14-19p17p14-19-19p17p14----14-|
|-------------------17-------------------------17----|
|----------------------------------------------------|
|----------------------------------------------------|
|----------------------------------------------------|
|----------------------------------------------------|


|-19p17p14-19-19p17p14----14-19b---------14-|
|----------------------17----------0/-18----|
|----------------------------------0--------|
|-------------------------------------------|
|-------------------------------------------|
|-------------------------------------------|


|-17p14----14-17p14-------------------------------|
|-------17----------17-14-14-14-17p14-------------|
|-------------------------------------16-14-14-14-|
|--------------------------------------------------|
|--------------------------------------------------|
|--------------------------------------------------|


|-------------------------------------9--|------------------------------------|
|--17------17------17----17------/10-----|------------------------------------|
|--16b18---16b18---16b18-16b18-----------|------14-14-14\-----14-14\------14\-|
|----------------------------------------|--16------------/16--------/16------|
|----------------------------------------|------------------------------------|
|----------------------------------------|------------------------------------|


|--12-12p10p9----9h10p9------12p10p9------12p10p9------|
|-------------12--------12p9---------12p9---------12p9-|
|------------------------------------------------------|
|------------------------------------------------------|
|------------------------------------------------------|
|------------------------------------------------------|


|-12p10p9----------------------------------|
|------------9----10-12p9------------------|
|---------12---11---------11-9-------------|
|------------------------------11-9--------|
|-----------------------------------11-9---|
|------------------------------------------|

								     D.S. al Coda 2
|------------------------------------------|-------16--16--17--19--21--22--22b24~--|
|-------------------------------------17---|--19---//--//--------------------------|
|------16---------16-----18---19--19--//---|--//-----------------------------------|
|------//--16h18--//-----//---//--//-------|---------------------------------------|
|-/19--------------------------------------|---------------------------------------|
|------------------------------------------|---------------------------------------|

Coda 2

w/ Rhy Fig 3

 Freezing, can't move at all
 Screaming, can't hear my call
 I am dying to live
 Cry out I'm trapped under ice

|------------------------------|------------------------------|
|------------------------------|------------------------------|
|------------------------------|------------------------------|
|--7--7-7----7--7--------------|--7--7-7----7--7--------------|
|--7--7-7----7--7--------------|--7--7-7----7--7--------------|
|--5--6-6----5--5--5-5-5-5-5-5-|--5--6-6----5--5--5-5-5-5-5-5-|


w/ Rhy Fig 4

w/ rhy Fig 2 (3 times)


|---------------------------|-----------------|
|---------------------------|-----------------|
|---------------------------|-----------------|
|------------------4--4--4--|--4--------------|
|------------------2--2--2--|--4--------------|
|-0h2-2-2-2-2-2-2-----------|--2--------------|