Through the Never
Metallica
On the album "Metallica", (c)1991
Transcribed by Leper.Messiah@NJackN.com
(Transcribed from memory, be forgiving, I spent hours making this look 
 professional :P)
                           
                           Through The Never
                             (Metallica)
                        Hetfield, Ulrich, Hammett
         
         16x          Riff A         3x  Fill 1          Riff A 3x            
||----------|--------|-----------------||---------------|         |----------|
||----------|--------|-----------------||---------------|         |----------|
||*--------*|--------|*---------------*||---------------|         |----------|
||*--------*|--------|*---------------*||---------------|         |----------|
||-----4----|-2-2---5|-----4-------3---||-----4-------5-|         |-2-2---5--|
||-0-2---2--|-0-0---3|-0-2---2-0-2---2-||-0-2---2-0-2-3-|         |-0-0---3--|
   PM.....             PM.............    PM.........
 
 
Riff A 3x  Fill 1  Riff A 3x 
                             |-------------------------|
                             |-------------------------|
                             |---------2-3-2-0---------|
                             |---------2-3-2-0-3-2-0-3-|
                             |-2-2-------------3-2-0-3-|
                             |-0-0---------------------|
                                               PM.....
 
Rhy Fig 1
|---------|---------|---------|---------|-----------|----------------------|
|---------|---------|---------|---------|-----------|----------------------|
|*--------|---------|---------|---------|---2----3--|-2-3-2-0-------------*|
|*--------|---------|---------|---------|---2----3--|---------3-2-0-2-3P2-*|
|---------|---------|---------|---------|-----------|----------------------|
|-0-0-0-0-|-0-0-0-0-|-0-0-0-0-|-0-0-0-0-|-0----0----|----------------------|
  PM...................................  PM   PM                              
 
                                      3x
|---------|---------|---------|---------|-----------|---------|---------|
|---------|---------|---------|---------|-----------|---------|---------|
|*--------|---------|---------|--------*|---2----3--|---------|---------|
|*--------|---------|---------|--------*|---2----3--|---------|---------|
|---------|---------|---------|---------|-----------|---------|---------|
|-0-0-0-0-|-0-0-0-0-|-0-0-0-0-|-0-0-0-0-|-0----0----|-0-0-0-0-|-0-0-0-0-|
  PM...................................  PM   PM      PM...............
 
 
|---------|---------|---------|---------|---------|---------|---------|
|---------|---------|---------|---------|---------|---------|---------|
|---------|---------|---------|---------|---------|---------|---------|
|---------|---------|---------|---------|---------|---------|---------|
|---------|---------|---------|---------|---------|---------|---------|
|-0-0-0-0-|-0-0-0-0-|-3-3-3-3-|-3-3-3-3-|-3-3-3-3-|-3-3-3-3-|-2-2-2-2-|
  PM.................................................................
 
                                               end Rhy Fig 1
|---------|---------|---------|-----------|-----------------|
|---------|---------|---------|-----------|-----------------|
|---------|---------|---------|---2----3--|-2-3-2-0---------|
|---------|---------|---------|---2----3--|---------3-2-0-3-|
|---------|---------|---------|-----------|-----------------|
|-2-2-2-2-|-2-2-2-2-|-2-2-2-2-|-0----0----|-----------------|
  PM.........................  PM   PM
 
 
 GTR I (Rhy Fig 2)                                         (end Rhy Fig 2)
|-----------------|-----------------|-----------------|-------------------|
|-----------------|-----------------|-----------------|-------------------|
|-----------------|-----------------|-----------------|-------------------|
|-----------------|-----------------|-----------------|-------------------|
|-----4-------3---|-----4-------3---|-----4-------3---|-----4-------3-----|
|-0-2---2-0-2---2-|-0-2---2-0-2---2-|-0-2---2-0-2---2-|-0-2---2-0-2---2---|
| PM............. | ............... | ............... | ...............   |
|                 |                 |                 |                   |
|GTR II(Rhy Fig 2)|                 |                 |    (end Rhy Fig 2)|
|-----------------|-----------------|-----------------|-------------------|
|-----------------|-----------------|-----7-----------|-------------------|
|-----------------|-----------------|--------6--5--4--|-------------------|
|-----------------|-----------------|-----------------|-----4-------------|
|-----4-------3---|-----4-------3---|-----------------|--------4--3--2----|
|-0-2---2-0-2---2-|-0-2---2-0-2---2-|-----------------|-------------------|
  PM.............   ...............
 
 ________________________
 Rhy Fig 3               |
 3x                    3x       Riff A 3x  Fill 1  Riff A 3x
|------------||----------|-----|
|------------||----------|-----|
|*----------*||*--------*|-----|
|*----------*||*--------*|-----|
|-2-4--4-----||-2-4--2-4-|-5---|
|-0-2--2-2-2-||-0-2--0-2-|-3---|
 
     
                           Rhy Fig 1  Rhy Fig 2  Rhy Fig 3
|-------------------------|                                |---------------|
|-------------------------|                                |---------------|
|---------2-3-2-0---------|                                |-2-3-2-0-------|
|---------2-3-2-0-3-2-0-3-|                                |---------3-2-0-|
|-2-2-------------3-2-0-3-|                                |---------------|
|-0-0---------------------|                                |---------------|
                  PM.....
 
 (solo)                 14x                       14x           3x    6x
|-------------||-----------|--------------||---------|------------|-----|
|-------------||-----------|--------------||---------|------------|-----|
|-------------||*---------*|-------------*||*-------*|*----------*|*---*|
|-------------||*-2-4-4-4-*|-------------*||*-------*|*----------*|*---*|
|-4-2--2--2-2-||--0-2-2-2--|-4-2--2--2-2--||-5-7-7-7-|-2-4--4-----|-2-4-|
|-2-0--0--0-0-||-----------|-2-0--0--0-0--||-3-5-5-5-|-0-2--2-2-2-|-0-2-|
     Heavy PM...             Heavy PM...     PM..................
 
 
|---------|---------|---------|---------|---------|---------|---------|
|---------|---------|---------|---------|---------|---------|---------|
|---------|---------|---------|---------|---------|---------|---------|
|---------|---------|---------|---------|---------|---------|---------|
|---------|---------|---------|---------|---------|---------|---------|
|-0-0-0-0-|-0-0-0-0-|-0-0-0-0-|-0-0-0-0-|-0-0-0-0-|-0-0-0-0-|-0-0-0-0-|
  PM.................................................................
 
                                  
|---------|---------|
|---------|---------|
|---------|---------|
|---------|---------|
|---------|---------|
|-0-0-0-0-|-0-0-0-0-|
  PM...............
 
 
 Rhy Fig 4                end Rhy Fig 4  
                                    16x
|-------------------|------------------|----------------|----------------|
|-------------------|------------------|----------------|----------------|
|*------------------|-----------------*|----------------|----------------|
|*------------------|-----------------*|--x--x----x--x--|--x--x----x--x--|
|--2--------5-------|-----5--5h7P5-----|--x--x----x--x--|--x--x----x--x--|
|--0--0--0--3--0-0--|/6------------6-\-|--x--x----x--x--|--x--x----x--x--|
      PM..     PM..                                
 
 
|--------------------------|--------------------------|
|--------------------------|--------------------------|
|--------------------------|--------------------------|
|--------------------------|--------------------------|
|--------3-----------3-----|--------3-----------3-----|
|--0--2-----2--0--2-----2--|--0--2-----2--0--2-----2--|
  PM...|   PM......|   PM.........|   PM......|   PM



Rhy Fig 2  Rhy Fig 3 |----| Riff A 3x  |------|
                     |----|            |------|
                     |----|            |------|
                     |----|            |------|
                     |--5-|            |-5-5--|
                     |--3-|            |-3-3--|
     
     IMMMMMMMMMMMMMMMMMMMMMMMMMM;
     : Jay Sharma               :
     : Leper.Messiah@NjackN.com :
     : Leper.Messiah@Rushnet.com:
     HMMMMMMMMMMMMMMMMMMMMMMMMMM<
 
 
                     
================================================================================
         Title : Through The Never : Solo
        Artist : Metallica
         Album : Metallica
Transcribed by : Christian Theves
        Website: http://www.geocities.com/SunsetStrip/Pit/1570/index.html
================================================================================

Tuning (low to high) = E A D G B E 

Note: 6pbr4 means: prebend note on 4th fret a whole step and then release



|--------------------------------------------|-----------------------------------------|
|-19-------------19----------------19--------|-----19-------------19--22--19h22p19-----|
|-----21p19--21------21p19--19h21------21p19-|-21------21p19--21--------------------21-|
|--------------------------------------------|-----------------------------------------|
|--------------------------------------------|-----------------------------------------|
|--------------------------------------------|-----------------------------------------|



                                                                steady gliss.
|-------------------------------------|--------------------------------|
|--22p19------19----------------------|--------------------------------|
|---------21------21--19------19--21--|--21b23--r21--19----------------|
|-------------------------21----------|------------------21-~-~-(21)-\-|
|-------------------------------------|--------------------------------|
|-------------------------------------|--------------------------------|



               A.H.    A.H.         A.H.
|--------------------------------|-------------------------------------|
|--------------------------------|-------------------------------------|
|--------7--9--{9}pbr--{9}pbr----|--{9}pbr----7---------------------7--|
|----/9--------------------------|----------------9-~-~-(9)\--/--9-----|
|--------------------------------|-------------------------------------|
|--------------------------------|-------------------------------------|
           prebend notes one step before striking the harmonics



|------------------------------------|---------------------------|
|-----------------------------10b12--|--(10)-~-~-----------------|
|--9--7--9b11--r9p7-----7--9---------|--------------9\-----------|
|--------------------9---------------|--------------------/9--7--|
|------------------------------------|---------------------------|
|------------------------------------|---------------------------|




  P.M.....|       P.M.................|     P.M..............|
|---------------------------|-------------------------|----------------------------|
|-----------7---------------|-----------7-------------|----------------------------|
|-----------7---------------|-----------7-------------|--------9-----7--9----------|
|--9--7--9---------9--7-----|--7--9--7-------9--7-----|--7--9-----9--------9p7-----|
|------------------------9--|----------------------9--|-------------------------9--|
|---------------------------|-------------------------|----------------------------|



|-----------------------------|---------------------------|-----------------------|
|-----------------------------|---------------------------|-----------------------|
|-----------------------------|---------------------------|-----------------------|
|--7--------------------------|---------------------------|-----------------------|
|-----9--7--5--~--~--~-----7--|--8--7--5--7b8r7p5--7b8r7p-|-5--7b8r7p5--7b9--b10--|
|-----------------------------|---------------------------|-----------------------|



     gradual release
|-------------------|------------------|
|-------------------|------------------|
|-------------------|------------------|
|-------------------|------------------|
|---(7)--------r7---|--5---------------|
|-------------------|-----7-~-~-7-~-~--|



|-----------------------------------------------------------|
|--17--20p17------17h20p17------17h20p17------17h20p17------|
|-------------19------------19------------19------------19--|
|-----------------------------------------------------------|
|-----------------------------------------------------------|
|-----------------------------------------------------------|



|----------------------------------------------------------|
|--17h20p17------17h20p17------17h20p17------17h20p17------|
|------------19------------19------------19------------19--|
|----------------------------------------------------------|
|----------------------------------------------------------|
|----------------------------------------------------------|



|-------------------------------------------------|--------------20------------|
|--17h20p17--20b23--r20-b23--r20--b23--20p17------|--17--20--17----------------|
|---------------------------------------------19--|----------------------------|
|-------------------------------------------------|----------------------------|
|-------------------------------------------------|----------------------------|
|-------------------------------------------------|----------------------15-\--|



            steady gliss.
|-------2---------------|-------2--------------------|-------2--------------------|
|-------2---------------|-------2--------------------|-------2--5-----------------|
|--4b6---------11-\-----|--4b6-----4p2-----2---------|--4b6--------4--2-----2--4--|
|-----------------------|---------------4-----4------|-------------------4--------|
|-----------------------|----------------------------|----------------------------|
|-----------------------|----------------------------|----------------------------|



                                                              dive w/bar
|--------------------------|----------------------|---------------------|
|--------------------------|----14-------16-------|----17---------------|
|--6pbr4---2---------------|----16b18----18b20----|----19b21------------|
|--------------4----(4)-/--|----------------------|---------------16-\--|
|--------------------------|----------------------|----------------0-\--|
|--------------------------|----------------------|---------------------|
                              bend lower notes a whole step