Shortest Straw
written by Hetfield and Ulrich 
as performed on ...And Justice For All

tab by: Mike Byrne (dragonfire000@hotmail.com)

(Some credit goes to Paul Halvorson)

Riff 1

||---------------------------------------------------------------------------|
||---------------------------------------------------------------------------|
||---------------------------------------------------------------------------|
||--2---2---2---2--2---2-5----2---2---2--2---2-5----2---2---2--2---2-5----2--|
||--2-3-2---2-3-2--2-3-2-5--3-2---2-3-2--2-3-2-5--3-2---2-3-2--2-3-2-5--3-2--|
||--0-1-0---0-1-0--0-1-0-3--1-0---0-1-0--0-1-0-3--1-0---0-1-0--0-1-0-3--1-0--|
pm......................    ..................    .     ............    ...
|-------------------------||
|-------------------------||
|-------------------------||
|--2---2--2---2-5--2---2--||
|--2-3-2--2-3-2-5--2-3-2--||
|--0-1-0--0-1-0-3--0-1-0--||
pm.............    .....
0:00 - 0:14


Riff 2

||--------------------------------||
||--------------------------------||
||--------------------------------|| Repeat 3 times
||--------------2---2--5--3----2--||
||--------------2-3-2--5--1--3-2--||
||--0--0--0-0-0-0-1-0--3-----1-0--||
pm.............

0:14 - 0:25

||---------------------------------------||
||---------------------------------------||
||---------------------------------------||
||--------------2---2-5--5--4--3--2---2--||
||--------------2-3-2-5--5--4--3--2-3-2--||
||--0--0--0-0-0-0-1-0-3--3--2--1--0-1-0--||
pm.............

0:25 - 0:29


||--------------------------------||
||--------------------------------||
||--------------------------------|| Repeat 3 times
||--------------2---2--5--3----2--||
||--------------2-3-2--5--1--3-2--||
||--0--0--0-0-0-0-1-0--3-----1-0--||
pm.............

0:29 - 0:40

||---------------------------------------||
||---------------------------------------||
||---------------------------------------||
||--------------2---2-5--5--4--3--2---2--||
||--------------2-3-2-5--5--4--3--2-3-2--||
||--0--0--0-0-0-0-1-0-3--3--2--1--0-1-0--||
pm.............

0:40 - 0:44

||------------------------||
||------------------------||
||------------------------||
||--------------2-3--3-2--||
||--------------2-1--1-2--||
||--0--0--0-0-0-0------0--||
pm.............

0:44 - 0:46


Riff 3

||------------------------------------------||
||------------------------------------------||
||------------------------------------------|| Repeat 4 times
||-----8-7^-8--------------------2/3-2/3----||
||--/7--------7------------------2/3-2/3----||
||---------------0--0--0-0--0-0----------0--||
pm               ..............          .

0:46 - 1:05


Riff 4

||-----------------------------------------------------------|
||-----------------------------------------------------------|
||-----------------------------------------------------------|
||------------------2/3-2/3------------------2/5-2/5---------|
||------------------2/3-2/3------------------2/5-2/5---------|
||--0--0--0-0--0-0----------0--0--0-0--0-0-------------------|
pm................          ..............

|-----------------------------------------------------------|| Repeat 2 times
|-----------------------------------------------------------||
|-----------------------------------------------------------||
|------------------2/3-2/3-----------------5--4--3----------||
|------------------2/3-2/3-----------------5--4--3----------||
|--0--0--0-0--0-0----------0--0--0-0--0-0--3--2--1----------||
pm...............          ..............

1:05 - 1:19


Riff 5

||-----------------------------------------------------------|
||-----------------------------------------------------------|
||-----------------------------------------------------------|
||------------------4/5-4/5------------------4/7-4/7---------|
||------------------4/5-4/5------------------4/7-4/7---------|
||--2--2--2-2--2-2----------2--2--2-2--2-2-------------------|
pm................          ..............

|-----------------------------------------------------------|| Repeat 2 times
|-----------------------------------------------------------||
|-----------------------------------------------------------||
|------------------4/5-4/5------------------7--6--5---------||
|------------------4/5-4/5------------------7--6--5---------||
|--2--2--2-2--2-2-----------2--2--2-2--2-2--5--4--3---------||
pm...............           ..............

1:19 - 1:32


||------------------------------------------||
||------------------------------------------||
||------------------------------------------|| Repeat 2 times
||-----8-7^-8--------------------2/3-2/3----||
||--/7--------7------------------2/3-2/3----||
||---------------0--0--0-0--0-0----------0--||
pm               ..............          .

1:32 - 1:38


Riff 6

||----------------------------------------------|
||----------------------------------------------|
||----------------------------------------------|
||----------2h3p2p0-2h3p2p0-9--9--9/10----------|
||--9-9-9-9-----------------7--7--7/8---9/10-10-|
||--7-7-7-7-----------------------------7/8--8--|
pm.........

|--------------------------------------------------------||
|--------------------------------------------------------||
|--------------------------------------------------------||
|-2h3p2p0-2h3p2p0--------9/10-----------2h3p2p0 2h3p2p0--||
|------------------7--7--7/8---9/10 10-------------------||
|------------------5--5--------7/8--8--------------------||

1:38 - 1:47


||---------||
||---------||
||---------||
||--2---2--||
||--2-3-2--||
||--0-1-0--||
pm.......

1:47 - 1:48


||--------------------------------||
||--------------------------------||
||--------------------------------|| Repeat 3 times
||--------------2---2--5--3----2--||
||--------------2-3-2--5--1--3-2--||
||--0--0--0-0-0-0-1-0--3-----1-0--||
pm.............

1:48 - 1:58


||---------------------------------------||
||---------------------------------------||
||---------------------------------------||
||--------------2---2-5--5--4--3--2---2--||
||--------------2-3-2-5--5--4--3--2-3-2--||
||--0--0--0-0-0-0-1-0-3--3--2--1--0-1-0--||
pm.............

1:58 - 2:02


||--------------------------------||
||--------------------------------||
||--------------------------------|| Repeat 3 times
||--------------2---2--5--3----2--||
||--------------2-3-2--5--1--3-2--||
||--0--0--0-0-0-0-1-0--3-----1-0--||
pm.............

2:02 - 2:12


||--------------------------------||
||--------------------------------||
||--------------------------------||
||--------------2---2-5--5--4--3--||
||--------------2-3-2-5--5--4--3--||
||--0--0--0-0-0-0-1-0-3--3--2--1--||
pm.............

2:12 - 2:16


||------------------------------------------||
||------------------------------------------||
||------------------------------------------|| Repeat 4 times
||-----8-7^-8--------------------2/3-2/3----||
||--/7--------7------------------2/3-2/3----||
||---------------0--0--0-0--0-0----------0--||
pm               ..............          .

2:16 - 2:29


||-----------------------------------------------------------|
||-----------------------------------------------------------|
||-----------------------------------------------------------|
||------------------2/3-2/3------------------2/5-2/5---------|
||------------------2/3-2/3------------------2/5-2/5---------|
||--0--0--0-0--0-0----------0--0--0-0--0-0-------------------|
pm................          ..............

|-----------------------------------------------------------|| Repeat 2 times
|-----------------------------------------------------------||
|-----------------------------------------------------------||
|------------------2/3-2/3-----------------5--4--3----------||
|------------------2/3-2/3-----------------5--4--3----------||
|--0--0--0-0--0-0----------0--0--0-0--0-0--3--2--1----------||
pm...............          ..............

2:29 - 2:42


||-----------------------------------------------------------|
||-----------------------------------------------------------|
||-----------------------------------------------------------|
||------------------4/5-4/5------------------4/7-4/7---------|
||------------------4/5-4/5------------------4/7-4/7---------|
||--2--2--2-2--2-2----------2--2--2-2--2-2-------------------|
pm................          ..............

|-----------------------------------------------------------|| Repeat 2 times
|-----------------------------------------------------------||
|-----------------------------------------------------------||
|------------------4/5-4/5------------------7--6--5---------||
|------------------4/5-4/5------------------7--6--5---------||
|--2--2--2-2--2-2-----------2--2--2-2--2-2--5--4--3---------||
pm...............           ..............

2:42 - 2:55


||------------------------------------------||
||------------------------------------------||
||------------------------------------------|| Repeat 2 times
||-----8-7^-8--------------------2/3-2/3----||
||--/7--------7------------------2/3-2/3----||
||---------------0--0--0-0--0-0----------0--||
pm               ..............          .

2:55 - 3:02


||----------------------------------------------|
||----------------------------------------------|
||----------------------------------------------|
||----------2h3p2p0-2h3p2p0-9--9--9/10----------|
||--9-9-9-9-----------------7--7--7/8---9/10-10-|
||--7-7-7-7-----------------------------7/8--8--|
pm.........

|--------------------------------------------------------||
|--------------------------------------------------------||
|--------------------------------------------------------||
|-2h3p2p0-2h3p2p0--------9/10-----------2h3p2p0 2h3p2p0--||
|------------------7--7--7/8---9/10 10-------------------||
|------------------5--5--------7/8--8--------------------||

3:02 - 3:10


||---------||
||---------||
||---------||
||--2---2--||
||--2-3-2--||
||--0-1-0--||
pm.......

3:10 - 3:11


||--------------------------------||
||--------------------------------||
||--------------------------------|| Repeat 3 times
||--------------2---2--5--3----2--||
||--------------2-3-2--5--1--3-2--||
||--0--0--0-0-0-0-1-0--3-----1-0--||
pm.............

3:11 - 3:22


||---------------------------------------||
||---------------------------------------||
||---------------------------------------||
||--------------2---2-5--5--4--3--2---2--||
||--------------2-3-2-5--5--4--3--2-3-2--||
||--0--0--0-0-0-0-1-0-3--3--2--1--0-1-0--||
pm.............

3:22 - 3:26



||--------------------------------||
||--------------------------------||
||--------------------------------|| Repeat 3 times
||--------------2---2--5--3----2--||
||--------------2-3-2--5--1--3-2--||
||--0--0--0-0-0-0-1-0--3-----1-0--||
pm.............

3:26 - 3:36


||--------------------------------||
||--------------------------------||
||--------------------------------||
||--------------2---2-5--5--4--3--||
||--------------2-3-2-5--5--4--3--||
||--0--0--0-0-0-0-1-0-3--3--2--1--||
pm.............

3:36 - 3:40


||------------------------------------------||
||------------------------------------------||
||------------------------------------------|| Repeat 2 times
||-----8-7^-8--------------------2/3-2/3----||
||--/7--------7------------------2/3-2/3----||
||---------------0--0--0-0--0-0----------0--||
pm               ..............          .

3:40 - 3:46


Riff 7 

||-------------------------------------------------------------------||
||-------------------------------------------------------------------||
||----2---3-2h3p2------2---3-2h3p2-------2-4-5-7-7--7--7--------7----||
||--2---2---------2--3---3---------3--4------------------5-4--5---4--||
||-------------------------------------------------------------------||
||-------------------------------------------------------------------||

3:46 - 3:53


||-------------------------------------------------------------------------||
||-------------------------------------------------------------------------||
||----2---3-2h3p2------2---3-2h3p2-------2-4-5-7-7--7--7-------------9p5\--|| \
||--2---2---------2--3---3---------3--4------------------5-4--5-4-3------\-||  \
||------------------------------------------------------------5-4-3--------|| Trem bar dive
||------------------------------------------------------------3-2-1--------||

3:53 - 4:00


Solo Riff 1


||-----------------------------------------------------------|
||-----------------------------------------------------------|
||-----------------------------------------------------------|
||------------------2/3-2/3------------------2/5-2/5---------|
||------------------2/3-2/3------------------2/5-2/5---------|
||--0--0--0-0--0-0----------0--0--0-0--0-0-------------------|
pm................          ..............

|-----------------------------------------------------------|| Repeat 2 times
|-----------------------------------------------------------||
|-----------------------------------------------------------||
|------------------2/3-2/3-----------------5--4--3----------||
|------------------2/3-2/3-----------------5--4--3----------||
|--0--0--0-0--0-0----------0--0--0-0--0-0--3--2--1----------||
pm...............          ..............

4:00 - 4:13


Solo Riff 2

||--------------------------------------------------------------------------------||
||--------------------------------------------------------------------------------||
||--------------------------------------------------------------------------------||
||--9-----9\8-8-----8\7-7-----7\6-6-6---5-----5-----5\4-4-----4\3-3-----3-2--2-2--||
||--9-----9\8-8-----8\7-7-----7\6-6-6---5-----5-----5\4-4-----4\3-3-----3-2--2-2--||
||--7-----7\6-6-----6\5-5-----5\4-4-4---3-----3-----3\2-2-----2\1-1-----1-0--0-0--||

4:13 - 4:25


||---------||
||---------||
||---------||
||--5-4-3--||
||--5-4-3--||
||--3-2-1--||

4:25 - 4:26


Solo Riff 3

||-----------------------------||
||-----------------------------||
||-----------------------------||
||--5-----7-----9-----10-------||
||--5-----7-----9-----10-------||
||--3-----5-----7-----8--------||

4:26 - 4:33


Solo - 4:00 - 4:33

  AH
||------------------------------|--------------------------14--|
||-----\2.5/--\2.5/---\2.5/-----|----\1/------\1/----14h15-----|
||--9---------------------------|--9-----7----14---------------|
||------------------------------|------------------------------|
||------w/ bar------------------|------------------------------|
||------------------------------|------------------------------|

|-17p15p14-------12-15p14p12----------14p12-------------12-------------12-|
|----------15----------------14p12h15-------15p13p12h13----15p13p12h13----|
|-------------16----------------------------------------------------------|
|-------------------------------------------------------------------------|
|-------------------------------------------------------------------------|
|-------------------------------------------------------------------------|

 NH.....................|
|-7----------------------|-------12----------------------14p12h14----12----------------|
|----7-------------------|----------15p12-------12h15p12----------15----------12h15p12-|
|-------7-----5--5--5--5-|-14b16----------14b16-------------------------14b16----------|
|----------7--5--5--5--5-|-------------------------------------------------------------|
|------------------------|-------------------------------------------------------------|
|------------------------|-------------------------------------------------------------|

                                          AH
|---------------------------------------|-------------------------------------|
|-14p12----12---------------------------|-------------------------------------|
|-------15----15p14p12----14p12------12-|-14b16-11b12-------------------------|
|----------------------14---------14----|-------------13b14-12b13-11b12-------|
|---------------------------------------|-------------------------------13b14-|
|---------------------------------------|-------------------------------------|

  AH
|----------------------------19-|-22p20p19-------22p20p19-------19-------------------------|
|--------------------------20---|----------22-22----------20-20----22p20p19-22p20p19-------|
|-------------------------------|----------------------------------------------------20b21-|
|-------------------------------|----------------------------------------------------------|
|-12b13-11b12-9b10-12-~-~-------|----------------------------------------------------------|
|-------------------------------|----------------------------------------------------------|

|----19-------------------------------------------------------|
|-20----22p20p19-22p20p19-------20p19----------19-------------|
|-------------------------21-21-------21p19-19----21p19----21-|
|-------------------------------------------------------22----|
|-------------------------------------------------------------|
|-------------------------------------------------------------|

|-------------------------------------------------------|
|-20p19-------19p17----------17p15-------15p13p12----12-|
|-------21p19-------19p18p17-------17p16----------14----|
|-------------------------------------------------------|
|-------------------------------------------------------|
|-------------------------------------------------------|

|------------------------------------------|--------------------------------------|
|-17p12-15p12-14p12------------------------|--------------------------------------|
|-------------------14p12-14b16------------|-11----10----9----8---7---6---5---4---|
|---------------------------------------12-|----12----11---10---9---8---7---6---5-|
|------------------------------------14----|--------------------------------------|
|------------------------------------------|--------------------------------------|

|----------------------------|---------------------------7------10--12--|
|----------------------------|------------------------8-----11----------|
|-3---3---2---1---2p0--------|--------------7--10--9--------------------|
|---4---4---3---2-----2p0-2--|--------9--8------------------------------|
|----------------------------|-7--10------------------------------------|
|----------------------------|------------------------------------------|
                               PM......................................|

|--15\--------------|-9p6---9p6---9p6-9p6---9p6---9p6-|
|-------------------|-----7-----7---------7-----7-----|
|-------------------|---------------------------------|
|-------------------|---------------------------------|
|-------------------|---------------------------------|
|-------------------|---------------------------------|

|-10p7---10p7---10p7-10p7---10p7---10p7-|-12p7---12p7---12p7-12p7---12p7---12p7-|
|------8------8-----------8------8------|------9------9-----------9------9------|
|---------------------------------------|---------------------------------------|
|---------------------------------------|---------------------------------------|
|---------------------------------------|---------------------------------------|
|---------------------------------------|---------------------------------------|

|-12p9----12p9----12p9-12p9----12p9----12p9-||
|------10------10-----------10------10------||
|-------------------------------------------||
|-------------------------------------------||
|-------------------------------------------||
|-------------------------------------------||


||--------------------------------------------------------------------------||
||--------------------------------------------------------------------------||
||----4---5-4h5p4------4---5-4h5p4-------2-6-7-9-9--9--9--------------------|| 
||--4---4---------4--5---5---------5--6------------------7-6--7-6-5--4-3-2--||  
||------------------------------------------------------------7-6-5--4-3-2--|| 
||------------------------------------------------------------5-4-3--2-1-0--||

4:33 - 4:40



||---------||
||---------||
||---------||
||--2---2--||
||--2-3-2--||
||--0-1-0--||
pm.......

4:40

||--------------------------------||
||--------------------------------||
||--------------------------------|| Repeat 3 times
||--------------2---2--5--3----2--||
||--------------2-3-2--5--1--3-2--||
||--0--0--0-0-0-0-1-0--3-----1-0--||
pm.............

4:40 - 4:52


||---------------------------------------||
||---------------------------------------||
||---------------------------------------||
||--------------2---2-5--5--4--3--2---2--||
||--------------2-3-2-5--5--4--3--2-3-2--||
||--0--0--0-0-0-0-1-0-3--3--2--1--0-1-0--||
pm.............

4:52 - 4:56


2nd Solo Riff

||---------------------||
||---------------------||
||---------------------|| Repeat 8 times
||--------------2---2--||
||--------------2-3-2--||
||--0--0--0-0-0-0-1-0--||

4:56 - 5:09


||----------------||
||----------------||
||----------------||
||--7--6--5--4-3--||
||--7--6--5--4-3--||
||--5--4--3--2-1--||

5:09 - 5:11


2nd Solo 4:56 - 5:11 


||---------------|--------------------------|-----------------------------|
||----17b18-~-~--|-(17)---------------------|-17b20--17b19----------------|
||----17b19-~-~--|-(17)--17b19r17p15-17p15--|-----------------17b20r17p15-|
||---------------|--------------------------|-----------------------------|
||---------------|--------------------------|-----------------------------|
||---------------|--------------------------|-----------------------------|

|---------------------------------|---------------------------------|
|-17b18-r17--15----17--17--15-----|-15--17--17p15------15-----------|
|-17b19-r17--15----17--17--15-----|-15--17--17p15------15-----------|
|------------------------------17-|---------------17-------17--15---|
|---------------------------------|---------------------------------|
|---------------------------------|---------------------------------|
               <
|---------------||
|---------------||
|---------------||
|---------------||
|--17----(17)\--||
|---------------||


||------------||
||------------||
||------------||
||-----2------|| Volume Swell
||-----2------||
||-----0------||

5:11 - 5:12


||-----------------------------------------------------------|
||-----------------------------------------------------------|
||-----------------------------------------------------------|
||------------------2/3-2/3------------------2/5-2/5---------|
||------------------2/3-2/3------------------2/5-2/5---------|
||--0--0--0-0--0-0----------0--0--0-0--0-0-------------------|
pm................          ..............

|-----------------------------------------------------------|| Repeat 2 times
|-----------------------------------------------------------||
|-----------------------------------------------------------||
|------------------2/3-2/3-----------------5--4--3----------||
|------------------2/3-2/3-----------------5--4--3----------||
|--0--0--0-0--0-0----------0--0--0-0--0-0--3--2--1----------||
pm...............          ..............

5:12 - 5:25


||-----------------------------------------------------------|
||-----------------------------------------------------------|
||-----------------------------------------------------------|
||------------------4/5-4/5------------------4/7-4/7---------|
||------------------4/5-4/5------------------4/7-4/7---------|
||--2--2--2-2--2-2----------2--2--2-2--2-2-------------------|
pm................          ..............

|-----------------------------------------------------------|| Repeat 2 times
|-----------------------------------------------------------||
|-----------------------------------------------------------||
|------------------4/5-4/5------------------7--6--5---------||
|------------------4/5-4/5------------------7--6--5---------||
|--2--2--2-2--2-2-----------2--2--2-2--2-2--5--4--3---------||
pm...............           ..............

5:25 - 5:38

||------------------------------------------||
||------------------------------------------||
||------------------------------------------|| Repeat 2 times
||-----8-7^-8--------------------2/3-2/3----||
||--/7--------7------------------2/3-2/3----||
||---------------0--0--0-0--0-0----------0--||
pm               ..............          .

5:38 - 5:44


||----------------------------------------------|
||----------------------------------------------|
||----------------------------------------------|
||----------2h3p2p0-2h3p2p0-9--9--9/10----------|
||--9-9-9-9-----------------7--7--7/8---9/10-10-|
||--7-7-7-7-----------------------------7/8--8--|
pm.........

|--------------------------------------------------------||
|--------------------------------------------------------||
|--------------------------------------------------------||
|-2h3p2p0-2h3p2p0--------9/10-----------2h3p2p0 2h3p2p0--||
|------------------7--7--7/8---9/10 10-------------------||
|------------------5--5--------7/8--8--------------------||

5:44 - 5:53


||---------||
||---------||
||---------||
||--2---2--||
||--2-3-2--||
||--0-1-0--||
pm.......

5:53 - 5:54


||--------------------------------||
||--------------------------------||
||--------------------------------|| Repeat 3 times
||--------------2---2--5--3----2--||
||--------------2-3-2--5--1--3-2--||
||--0--0--0-0-0-0-1-0--3-----1-0--||
pm.............

5:54 - 6:04


||---------------------------------------||
||---------------------------------------||
||---------------------------------------||
||--------------2---2-5--5--4--3--2---2--||
||--------------2-3-2-5--5--4--3--2-3-2--||
||--0--0--0-0-0-0-1-0-3--3--2--1--0-1-0--||
pm.............

6:04 - 6:09


||------------------------||
||------------------------||
||------------------------||
||--------------2----2-3--||
||--------------2-3--2-1--||
||--0--0--0-0-0-0-1--0----||
pm.............

6:09 - 6:11


||-----------------------------------------------------------|
||-----------------------------------------------------------|
||-----------------------------------------------------------|
||------------------2/3-2/3------------------2/5-2/5---------|
||------------------2/3-2/3------------------2/5-2/5---------|
||--0--0--0-0--0-0----------0--0--0-0--0-0-------------------|
pm................          ..............

6:11 - 6:14


||-------------------------------------------------------------------||
||-------------------------------------------------------------------||
||----2---3-2h3p2------2---3-2h3p2-------2-4-5-7-7--7--7--------7----||
||--2---2---------2--3---3---------3--4------------------5-4--5---4--||
||-------------------------------------------------------------------||
||-------------------------------------------------------------------||

6:14 - 6:21


||--------------------------------------------------------------------||
||--------------------------------------------------------------------||
||----2---3-2h3p2------2---3-2h3p2-------2-4-5-7-7--7--7--------------|| 
||--2---2---------2--3---3---------3--4-------------------5-4--5-4-3--||  
||-------------------------------------------------------------5-4-3--|| 
||-------------------------------------------------------------3-2-1--||

6:21 - 6:28


||--------------------------------------||
||--------------------------------------||
||--------------------------------------||
||------------------2/3-2/3-2----2/3-2--||
||------------------2/3-2/3-2----2/3-2--||
||--0--0--0-0--0-0----------0--------0--||

6:28 - 6:32