Slither 

Slither
written by Hetfield, Ulrich, and Hammett
as performed on ReLoad
tab by Phil Boyle; ibzrg470@apk.net


tune all guitars down 1/2 step
1)
Db--5-4-2---------7-6-5--5-4-2--2--2
Ab--3-2-0--7-6-5--5-4-3--3-2-0--0--0
Eb---------5-4-3--------------------
intro
"Don't go looking for snakes you might find them."


2a) left
Gb-----------6-----------6-----------6-----------6
Db---------5-7---------5-7---------5-7---------5-7
Ab--2---/7------2---/7------2---/7------2---/7----
Eb--0-0---------0-0---------0-0---------0-0-------

2b) right
Gb-----------------------------------------------6
Db--2-----------------------2-----8-7-5-2------5-7
Ab--2-----------------------2-----8-7-5-2---/7----
Eb--0-----------------------0-----6-5-3-0-0-------


3)
Gb------------------       ----------------
Db-----------8---7-- twice --------8-7--5-2
Ab--2--5------------ then  --------8-7--5-2
Eb--0--3-0-6---5---0       -0--3-5-6-5--3-0
verse
"Ooh like a puppet dances"


4a) left
Gb----------------------------------------
Db--2-3--2-3--2-3--2-3--2-3--2-3--2-3--2-3
Ab--2-3--2-3--2-3--2-3--2-3--2-3--2-3--2-3
Eb--0-1--0-1--0-1--0-1--0-1--0-1--0-1--0-1

4b) right
eb---------------------------------------
Bb----------------------5----6----8----10
Gb---------------------------------------
Db--2-3--2-3--2-3--2-3-------------------
Ab--2-3--2-3--2-3--2-3-------------------
Eb--0-1--0-1--0-1--0-1-------------------
"See you crawling."
then back to 1)


5)           ^
Gb------------------
Db---------5-7p5----
Ab------/7-------5-7
Eb--0-0-------------
pre second solo


6)
Db--2-2-2-2-2-2-2-2
Ab--0-0-0-0-0-0-0-0
Eb-----------------
second solo backing (just a lot of A then back to 3 and 4)