Tune down half a step:Eb,Ab,Db,Gb,Bb,Eb
Tabbed by Aidan Allan  a_aidan@hotmail.com

Intro: 1 guitar
          ~~~~~
e---------------------------------|
b---------------------------------|
g------------------------------5--|
d---(5)h8-7--------(5)h8-7--------|
a-0--------------0----------0-----|
e---------------------------------|
PM      -              -
          ~~~~~           ~~~
e-----------------------------------|
b-----------------------------------|
g-------------------------------6br-|  br=bend and release
d---(5)h8-7--------(5)h8--7-----7---|  (Here is only a 1/2 bend)
a-0--------------0-----------0------|
e-----------------------------------|
PM      -              -
        ~~~~         ~~~         hold bend        ~~
e---------------------|----------------------------------|
b---------------------|-----------8---(8)-(8-------------|
g---------------------|----5------7b--(9)-(9)-rp5---5--7-|
d-(5)h8-7------(5)h8-7|---------------------------7------|
a------------0--------|-0------0-------------------------|
e---------------------|----------------------------------|
PM    -            -
A second guitar joins and plays this

e---------------------------|
b---------------------------|  This riff is the same as the above
g----------------------5----|  just with out the 8's.
d---5--7-----5--7-----------|
a-0--------0--------0-------|
e---------------------------|
PM  -        -
    ~~   ~~   ~~             ~~  ~~  ~~
e----------------------|-----------------------|------------------
b----------------------|-----------------------|------------------
g---2----2----2--------|-----2---2---2---------|-5--4-------------
d------------------0-2-|------------------0-2--|-5--4---3--5--x-x-
a-0----0----0----3-----|-3p0---0---0----3------|-3--2---3--5--x-x-
e----------------------|-----------------------|------0-1--3--x-x-

Verse riff(s) There are two guitars playing slightly different riffs

   e---|-----------------------------------------|
   b---|-----------------------------------------|
G1 g-7-|--------9--7--9----7/9--9--9\7----(7)/12-|
   d-7-|-----------------------------------------|
   a-5-|-7h9p7--7--5--7----5/7--7--7\5----(5)/10-|
   e---|-----------------0-----------------------|

         e-----------------------------------------------------------
         b-----------------------------------------------------------
G1       g---9-7-9----7/9--------------------------------------------
(cont'd) d-----------------7---7-------------------------------------
         a---7-5-7----5/7--5---5--(5)/7h10---------------------------
         e-0--------0------------------------------------------------

Guitar 2
e------------------------------|-------------------------------------|
b------------------------------|-------------------------------------|
g------------------------------|-------------------------------------|
d--------9-x--x-7--x--x-7--9\--|--------9-x-x-7p9--9--7-7------------|
a-7h9p7--7-x--x-7--x--x-7--7\--|-7h9p7--7-x-x-7----7--5-5-(5)/7h10---|
e------------------------------|-------------------------------------|

   "now they all pray,..."
e---------------------------|----------------------------------|
b---------------------------|----------------------------------|
g-7--7--x-x--5--x-x-5--7--7-|-7--7--7--x---7--7-7\5--5--5-5--4-|
d-7--7--x-x--5--x-x-5--7--7-|-7--7--7--x---7--7-7\5--5--5-5--4-|
a-5--5--x-x--5--x-x-5--5--5-|-5--5--5--x---5--5-5\3--3--3-3--2-|
e---------------------------|----------------------------------|

Go back to intro riff

  "All things wash away,.......but blood stained the sun red today"
    hold bend                   hold bend
e-----------------------------|--------------------------------|
b---8--(8)-(8)----------------|-8--(8)-(8)---------------------|
g---7b-(9)-(9)-r(7)p5---5~~~7-|-7b-(9)-(9)-r(7)p5----5--7/-----|
d---------------------7-------|-------------------7------------|
a-0---------------------------|--------------------------------|
e--------------------------------------------------------------|

the "spoken" part
                   ~~~~~                       ~~~~
e---------x---x-x--------|--------x---x-x-----------|
b---------x---x-x--5-----|--------x---x-x-----------|
g---------x---x-x--5-----|--------x---x-x--5h7-6----|
d---5--7\----------------|--5--7\-------------------|
a-0----------------------|--------------------------|
e------------------------|--------------------------|
                      ~~~~~                     ~~~~
e----------x---x-x--x-------|------------------------|
b----------x---x-x--x-5-----|-----------8----8-------|
g----------x---x-x--x-5-----|--------7b---7b----5----|
d---5--7\-------------------|--5--7------------------|
a-0-------------------------|------------------------|
e---------------------------|------------------------|

e---------x--x--x-x----|------------------------------|
b---------x--x--x-x--5-|-8/10\8--8/10\8--8/10\7/10\8--|
g---------x--x--x-x--5-|------------------------------|
d-5--7\----------------|-5/7-\5--5/7-\5--5/-7\4/7-\5--|
a----------------------|------------------------------|
e----------------------|------------------------------|
                                ~~~
e----------------------------------|---------------------------|
b----------------------------------|---------------------------|
g-------------------------------5--|-------------5b-7-5b-7-6---|
d------7p5--7------5h7------5h7----|---7p5-7-------------------|
a-0-0----------0-0------0-0--------|-0-------0-0---------------|
e----------------------------------|---------------------------|
PM...          ...      ...          .       ...

                                "and they all fall down,down,down..."
                                              hold bend
e------------------------------|---------------------------------|
b------------------------------|-8--8--8--8---8--(8)-(8)-(8)-(8)-|
g--------------------------5p7-|-7b-7b-7b-7b--7b-(9)-(9)-(9)-(9)-|
d---7p5-7------5p7-7-7-5p7-----|---------------------------------|
a-0--------0-0-----------------|---------------------------------|
e------------------------------|---------------------------------|
PM.        ...

A fill used in the outro
e-----5----------------------|
b--------8-----5-------------|
g----------5h7---5h7---------|
d--7-----------------7p5--7--|
a----------------------------|
e----------------------------|

This is the outro solo type thingy
                     ~~~     1/2bend   ~~~~~~
e------8--8-------------8h10-10br---8--------|
b-/10--8--8--10--8--10----------------10-----|
g--------------------------------------------|
d--------------------------------------------|
a--------------------------------------------|
e--------------------------------------------|
                       full    ~~~~~~~~~~
e-8-8------------8-10--10br-8--10--------\---|
b-8-8---10-8--10-----------------------------|
g--------------------------------------------|
d--------------------------------------------|
a--------------------------------------------|
e--------------------------------------------|
                                   1/2    ~~~
e------8------------------------|-------------
b-/10----10--8p7--5-------------|-------------
g-------------------pb7r-5--7p5-|--7br---7\---   pb7r=prebend on 7
d-------------------------------|-------------   and release
a-------------------------------|-------------
e-------------------------------|-------------
                                                             ~~~~
e-8--------------------------------|-8--------------------------|
b-8-7-5----------7--------------5\-|-8-7-5-------7--------------|
g--------7-5-----7-5------------5\-|-------7-5---7-5------------|
d-------------7-------7--5--5h7----|-----------7-----7-----5-5--|
a----------------------------------|-------------------7-5------|
e----------------------------------|----------------------------|

e-----------------------------|-------------------|
b-8---8-------8--8--8--8--8---|-7-----------------|
g-7b--7br--5--7--5--5--5--7p5-|-7-----------------|
d-----------------------------|-------------------|
a-----------------------------|-------------------|
e-----------------------------|-------------------|

The very ending          ~~~~~~~~
e--------------------------|--------------------
b-8---8-----7--------------|--------------------
g-7b--7br-5-7-5--5b--(5)\2-|------(2)p0h2p0-----
d--------------------------|--------------------
a--------------------------|--------------------
e--------------------------|--------------------

Please send any comments,corrections or critisism to a_aidan@hotmail.com







Ronnie (Hetfield/Ulrich)
======
(Compiled By Damien Burke)

All tuned down 1/2 step

1 - Eb   4 - Db
2 - Bb   5 - Ab
3 - Gb   6 - Eb

Intro
  Rhy Fig 1. (Play Four Times)                         Bend and Release
e----------------------------------------------------------------------|
B----------------------------------------------------------------------|
G-----/H\---------/H\---------5^------/H\---------/H\--------6^----(6)-|
D-----5-8--7------5-8--7--------------5-8--7------5-8--7-----7-----(7)-|
A--0-----------0-----------0-------0-----------0----------0------------|
E----------------------------------------------------------------------|
       PM          PM                  PM          PM    

                           Bend and Release   end Rhy Fig 1.
e----------------------------------------------------------|
B--------------------------------8----8--8--/P-\-----------|
G--/H\---------/H\--------5------7^^--7--7-(7)-5----5--7---|
D--5-8--7------5-8--7----------------------------7---------|
A-----------0----------0------0----------------------------|
E----------------------------------------------------------|
    PM          PM 

  Rhy Fig 2. (Play Three Times then next bar)               end Rhy Fig 2. 
e----------------------------------------|--------------------------------|
B----------------------------------------|--------------------------------|
G------2-------2-------2-----------------|---5----4--------------------7--|
D------------------------------0-2-------|---5----4-------3---5--X--X--7--|
A--0-------0-------0-------3--------3-0--|---3----2-------3---5--X--X--5--|
E-----------------------------------\P/--|-------------0--1---3--X--X-----|

Verse
 Rhy Fig 3.
e--------------------------------------------------|
B--------------------------------------------------|
G--------------------------------------sl----------|
D--/H|P\------9---X--X--7---X--X--7----9\----------|
A--7-9-7------7---X--X--7---X--X--7----7\----------|
E--------------------------------------------------|
        Story...

e--------------------------------------------------|
B--------------------------------------------------|
G-----------------------/H-\-----------------------|
D--/H|P\------9---X--X--7--9--9---7----7-----/H-\--|
A--7-9-7------7---X--X--7-----7---5----5--5/7--10--|
E-----------------------------------------sl-------|
        Small... 

e--------------------------------------------------|
B--------------------------------------------------|
G--------------------------------------sl----------|
D-------------9---X--X--7---X--X--7----9\----------|
A--7----------7---X--X--7---X--X--7----7\----------|
E--------------------------------------------------|
   Never...
                                     end Rhy Fig 3.
e--------------------------------------------------|
B--------------------------------------------------|
G-----------------------/H-\-----------------------|
D--/H|P\------9---X--X--7--9--X---X-7----7----5----|
A--7-9-7------7---X--X--7-----X---X-5----5----3----|
E--------------------------------------------------|
   Different...

Play Rhy Fig 3. Again then Pre-Chorus

Pre-Chorus
  Rhy Fig. 4
e---------------------------------------------------------------------|
B---------------------------------------------------------------sl----|
G--7----7--X--X--5---X--X--5---7---7-----7----7--7--X----7--7--7\-\5--|
D--7----7--X--X--5---X--X--5---7---7-----7----7--7--X----7--7--7\-\5--|
A--5----5--X--X--5---X--X--5---5---5-----5----5--5--X----5--5--5\-\3--|
E---------------------------------------------------------------------|
 ...all pray...    
 
     end Rhy Fig 4.
e-----------------|
B-----------------|
G--5--5--5----4---|
D--5--5--5----4---|
A--3--3--3----2---|
E-----------------|

Chorus
------

Rhy Fig 1. Once 
Then

e----------------------------------------------------------------------|
B----------------------------------------------------------------------|
G-----/H\---------/H\---------5^------/H\---------/H\--------6^----(6)-|
D-----5-8--7------5-8--7--------------5-8--7------5-8--7-----7-----(7)-|
A--0-----------0-----------0-------0-----------0----------0------------|
E----------------------------------------------------------------------|
       PM          PM                  PM          PM    
   He said...
   
  Rhy Fill 1. 
  Bend and Release   
e-----------------------------------------------------------------------|
B------8-------8----8---/-P-\---------------------8--------8--------8---|
G------7^^-----7----7--(7)--5-----------5----7----7^^------7^^------7---|
D-----------------------------7-----------------------------------------|
A--0--------------------------------------------------------------------|
E-----------------------------------------------------------------------|
   All things... 

e----------------------------|
B---/-P-\-----------sl-------|
G--(7)--5------5----7\-------|
D---------7------------------|
A----------------------------|
E----------------------------|
             ...red today...
 
Explanation

(0) = let ring
/ = slide up
\ = slide down
^ = 1/2 or 1/4 bend
^^ = Full Bend
sl = slide
/P\ = pull-off
/H\ = hammer-on

Lyrics
======

Story starts,
Quiet town.
Small time boy,
big time frown.

Never talks, never plays.
Different path, lost his way.

Then streets of red,
red i'm afraid.
There's no confetti, 
no parade.

Nothing happens in this boring place,
but, oh my god, how it all did change.

Now they all pray,
blood stain wash away.

Chorus
------
He said, "Lost my way,
this bloody day, lost my way"
I heard him.

He said, "Lost my way,
this bloody day, lost my way"
All things wash away,
but blood stains the sun red today.

I always said,
"Something wrong
with little, strange
Ronnie Long"

Never laughed, never smiled.
Talked alone for miles and miles and miles.

Gallow calls,
"Son," I say,
"Keep your smile
and laugh all day.

Think once again in this boring place,
for little boys, how they soon change.

Now they all pray,
blood stain wash away.

Chorus
------
He said, "Lost my way,
this bloody day, lost my way"
I heard him.

He said, "Lost my way,
this bloody day, lost my way"
All things wash away,
but blood stains the sun red today.

Yeah, well all the green this died 
when Ronnie moved to this place.
He said, "Don't you dare ask
why I'm cursed to wear this face."

Well, now we all know why 
the children called him "Ronnie Frown".
When he pulled that gun from his pocket,
and they all fall down, down, down.

Chorus
------
He said, "Lost my way,
this bloody day, lost my way"
Yeah, yeah, I heard him.

He screamed, "Lost my way,
this bloody day, lost my way"
All things wash away,
but blood stains the sun red today.

That's right.
All things wash away.
And they all fall down, down.
But blood stained the sun today.
Yeah, yeah.
All things wash away.
And they all fall down.
But blood stained the sun today.