The Outlaw Torn

Tabbed by Aidan Allan
Lanks67@hotmail.com


Intro (fade in)

e-------------------------------------0-0-----|
b-------------------------------------0-0-----|
g---------------------------------------------|
d--3--2-----3-3---3-3---3-3---3--3------------|
a--3--1-----3-3---3-3---3-3---3--3------------|
e--0--0-----0-0---0-0---0-0---0--0------------|
PM          ......................


2nd Riff

e--------------------------------------------------|
b--------------------------------------------------|
g--------------------------------------------------|
d--------------------------------------------------|
a--5--7-----7-----5--7-----5--7------5--7-----7----|
e--0--0--0--0--0--0--0--0--0--0---0--0--0--0--0--0-|
PM       ..    ..       ..        ..       ..    ..

  1/2              1/2               1/2
e-----------------------------------------------|
b-----------------------------------------------|
g-----------------------------------------------|   b=bend
d--4b-r------------4b--r----------4--4b--r------|   r=release
a--5-----5-5---5---5-------5--5---5--5------5---|
e-----------------------------------------------|

And then...

e-----------|-------------|-------------------|
b-----------|-------------|-------------------|
g--7--9-----|-(9)---------|(9)---------\------|
d--7--9-----|-(9)---------|(9)---------\------|
a--5--7-----|-(7)---------|(7)---------\------|
e-----0-----|-(0)---------|(0)---------\------|

No playing during the verses except the occasional phrase above.
For verse use the 2nd riff.

Now the bridge. (And if I close my mind please pry it open....)

e--------------------------------------------|
b--------------------------------------------|
g--7--9----------------7---------------------|
d--7--9----------------7--7---5--7--7--7-----|
a--5--7----------------5--7---5--7--7--7-----|
e--------0--0----0--0-----5---3--5--5--5--0--|

e-------------------------------------------|
b-------------------------------------------|
g-------------------------------------------|
d--5--7--7--7---7---------------------------|
a--5--7--7--7---7-----(5)/7--5--5-----5-----|
e--3--5--5--5---5--3--(3)/5--3--2-----3-----|

1st interlude

   ~~~~~~               ~~~~~~
e--------------------|-------------|
b--------------------|-------------|
g--------------------|-------------|
d--------5---7b-r--5-|-------------|   x2    use volume swells
a--7-----------------|--7-----(7)\-|
e--------------------|-------------|

   ~~~~~~~
e------------------------|-------------------------|----------------
b------------------------|-***---------------------|----------------
g---------12---14b-r--12-|14b-r--b----12--14b-r--12|---------12-14br
d--14--------------------|-------------------------|-14p12----------
a------------------------|-------------------------|----------------
e------------------------|-------------------------|----------------

***= bend, release, bend (full step)
                        ~~~~~     ~~~~      ~~~~    ~~~~
e-----|--------------|---------------------|-------------|-----------
b-----|--------------|---------------------|-------------|-----------
g-----|--------------|---------------------|-------------|-----------
d--12-|--14b-r-------|---------5--7-----9--|-----5-------|----5---7-9
a-----|--------------|--7------------------|5-------7----|-7---------
e-----|--------------|---------------------|-------------|-----------

   ~~~~   ~~~     ~~~   ~~~       ~~~~~     ~~~~      ~~~~    ~~
e---------------|--------------|---------------------|--------------
b---------------\--------------|---------------------|--------------
g---------------|--------------|---------------------|--------------
d------5--------|-----------7--|--9--------------9---|-7----------9-
a--5------7-----|----5--5------|--------5---5--------|----3b--r-----
e---------------|-7------------|---------------------|--------------

   ~~~      ~~~   ~~~~~
e-------------------------|
b-------------------------|
g-------------------------|  Now to solo. Should be tabbed under this.
d--7----9---10----12------|
a-------------------------|
e-------------------------|


After solo and bridge
  ~~~              ~~~~~~
e----------------|--------------|-------------------|------------|
b----------------|--------------|-------------------|------------|
g----------------|--------------|-------------------|--feed-back-|
d-----5-7b--r--5-|--------------|------5--7b--r---5-|------------|
a--7-------------|-7-----(7)\---|--7----------------|--7-b--r--b-|
e----------------|--------------|-------------------|------------|


Now to awesome outro solo type thing>


                                        **bend 1.1/2          ~~~
e-----------------------------------------------------------------|
b-----------------------------------------------------------------|
g-----------------------------------------------------------------|
d-----------------------------------------------------------------|
a-----------------------------------------------------------------|
e--0--/10-12---0-/10-12--0--/10--12--0--/10--12--12b(15)--12--10--|
                                                 **
e--------------------------------------------------------------|
b--------------------------------------------------------------|
g--------------------------------------------------------------|
d--------------------------------------------------------------|
a------------------------------------------------12b--12---10--|
e--0--/10--12--0--/10-12-0--/10--12---0/10----12---------------|

1st bit again...then

e--------------------------------------------------------------------|
b--------------------------------------------------------------------|
g--------------------------------------------------------------------|
d--------------------------------------------------------------------|
a--------------------------------------------12b(14)--12---10h12p10--|
e-0-/10-12--0-/10-12--0-/10-12---0-/10--12---------------------------|

                                                           ~~~~
e---------------------------------------------------------------|
b---------------------------------------------------------------|
g---------------------------------------------------------------|
d---------------------------------------------------------------|
a---------------------------------------------------------------|
e-0-/10-12--0-/10-12--0-/10-12--0-/10-12-----12b(15)--12---10---|

e--------------------------------------------------------------|
b--------------------------------------------------------------|
g--------------------------------------------------------------|
d--------------------------------------------------------------|
a--------------------------------------------12b(14)---12--10--|
e-0-/10-12--0-/10-12--0-/10-12--0--/10---12--------------------|

e----------------------------------------------------------------|
b----------------------------------------------------------------|
g----------------------------------------------------------------|
d----------------------------------------------------------------|
a----------------------------------------------------------------|
e--------------------------------------------12b(15)---12---10---|

                                          1/4                 ~~~~
e-----------------------------------------------------------------\
b-----------------------------------------------------------------|
g-----------------------------------------------------------------|
d-----------------------------------------------------------------|
a-------------------------------------10--10b-------10---12---10--|
e-0--/10-12---0--/10--12---0-/10--12------------12----------------|

                1/4
e-------------------------------------------------------------------
b-------------------------------------------------------------------
g-------------------------------------------------------------------
d-------------------------------------------------------------------
a---------------10b---------------------------10-12b(14)-12-10h12p10
e-/10--12-12-12-----12-----12----12-12-10--12-----------------------

                1/4
e-------------------------------------------------------------|
b-------------------------------------------------------------|
g-------------------------------------------------------------|
d-------------------------------------------------------------|
a---------------10b-----------------10--12b(14)--12---10h12---|
e-/10--12-12-12-----12--12-12-10-12---------------------------|

                 1/4  ~~~~
e----------------------------------------------------------------|
b----------------12b---------------------------------------------|
g----------------12b---------------------12-14b(16)-14--12h14p12-|
d-/12--14--14-14------14---14-14--12--14-------------------------|
a----------------------------------------------------------------|
e----------------------------------------------------------------|

               1/4  ~~~                    1/4
e----------------------------------------------------------------|
b--------------12b----------------------12-12b----12-14--12\-----|
g--------------12b----------------------12-12b----12-14--12\-----|
d-/12-14-14-14------14---14-14-(12)h14---------14----------------|
a----------------------------------------------------------------|
e----------------------------------------------------------------|

e----------------------------------------------------------------|
b----------------------------------------------------------------|
g----------------------------------------------------------------|
d----------------------------------------------------------------|
a----------------------------------------------------------------|
e-0--/10-12--0-/10--12--0-/10--12--0-/10-12--12b(15)--12--10-----|

e----------------------------------------------------------------|
b----------------------------------------------------------------|
g----------------------------------------------------------------|
d----------------------------------------------------------------|
A---------------------------------------------10h12p10-----10-12-|
e-0-/10--12--0--/10-12---0-/10--12--0-/10--12----------12--------|

e----------------------------------------------------------------|
b----------------------------------------------------------------|
g----------------------------------------------------------------|
d----------------------------------------------------------------|
a----------------------------------------------------------------|
e-0--/10-12--0-/10-12--0-/10-12--0-/10-12--12b(15)-12--10--------|

                                     full    full      full   full
e-------------------------------------------------------------------|
b-------------------------------------------------------------------|
g-------------------------------------------------------------------|
d-------------------------------------------------------------------|
a-----------------------------10-12--10b--12-10b----12-10b-12-10b---|
e-0-/10-12--0-/10-12--0/10-12-------------------------------------12|

e-------------------------------------------------------------------|
b-------------------------------------------------------------------|
g-------------------------------------------------------------------|
d-------------------------------------------------------------------|
a-------------------------------------------------------------------|
e-0-/10-12--0-/10-12--0-/10-12--0-/10-12--12b(15)--12--10-----------|

                                            [hold bend........]  ~~
e-------------------------------------------------------------------|
b-------------------------------------------------------------------|
g-------------------------------------------------------------------|
d-------------------------------------------------------------------|
a-------------------------------------------12b-(12)-(12)-(12)--10--|
e-0-/10-12---0-/10-12--0-/10-12--0-/10--12--------------------------|

                                                        ~~~~~~
e-------------------------------------------------------------------|
b-------------------------------------------------------------------|
g-------------------------------------------------------------------|
d-------------------------------------------------------------------|
a-------------------------------------------------------------------|
e-0-/10-12--0-/10-12-0-/10-12--0-/10-12---12b(15)--12---10----------|

                              1/4
e-------------------------------------------------------------------|
b-------------------------------------------------------------------|
g-------------------------------------------------------------------|
d-------------------------------------------------------------------|
a-----------------------10-10-10b---------------------10------------|
e-0-/10-12--0-/10-12--0------------12-12-12--10-10-10-----(10)h12-\-|

                      1/4~~~
e-------------------------------------------------------------------|
b-------------------------------------------------------------------|
g-/12-12------------------------------------------------------------|
d-/12-12-14p12------------------------------------------------------|
a--------------14p12\10b------------------10--12b(14)--12--10h12p10-|
e----------------------------12\--/10-12----------------------------|

                     1/4  ~~~~
e-------------------------------------------------------------------|
b-------------------------------------------------------------------|
g-/12-12------------------------------------------------------------|
d-/12-12-14p12------------------------------------------------------|
a--------------14p12\10b----------------10--12b(14)--12--10h12------|
e-------------------------12--12\-/10-------------------------------|

Begin fade out now
               1/4
e-------------------------------------------------------------------|
b--------------12b-----------------------12-12-14---14--14-14--12---|
g--------------12b-----------------------12-12-14---14--14-14--12---|
d-/12-14-14-14-----14--14-14-12h14-14-14----------------------------|
a-------------------------------------------------------------------|
e-------------------------------------------------------------------|

               1/4
e-------------------------------12-----------------------------------|
b--------------12b----------12-----12-x--x--12-12----12-12-12-12-12x-0
g--------------12b----------12-----12-x--x--12-12----12-12-12-12-12x-|
d-12-14--14-14-----14----14------------------------------------------|
a--------------------------------------------------------------------|
e-------------------------------------------------12-----------------|


e-------------------------------------------------------------------|
b-------------------------------------------------------------------|
g-------------------------------------------------------------------|
d-------------------------------------------------------------------|
a-------------------------------------------------------------------|
e-0-/10-12--0-/10-12-0-/10-12--0-/10-12--12b(15)-12---10------------|

                                                        ~~~~~~~
e-------------------------------------------------------------------|
b-------------------------------------------------------------------|
g-------------------------------------------------------------------|
d-------------------------------------------------------------------|
a------------------------------------------12b(14)--12--10----------|
e--0-/10-12--0-/10-12-0-/10-12--0-/10--12---------------------------|

Fade Out

Phew!!   Thats it.
It's got an awesome outro but unfortunatley it got cut about 30seconds short 
on Load because the band was told that they had gone over a certain time all 
together (like 74mins or something) which could cause the CD to skip. They 
did not want this to happen for their fans so something had to give. 
Unfortunatly something had to give....they went to a fade out ending.
However the full version can be heard on the latest album S&M.

Thanks yall
Later