Transcribed and tabbed by William Poire. E-mail at
hillsdale_saint@yahoo.com  
This tab is similar to many others found on the web,
however it differs because
of the "correctness". I have studied Metallica's
style through countless videos
and have found (what I believe) to be the correct way
to play. 

Tablature explanation:

( ) = Ghost Note
x = Muffled Note
PM = Palm Mute
~ = Vibrato
h = Hammer On
p = Pull Off
T = Tap (using edge of the pick)
/ = Slide up the neck
b = Bend the string to note desired
r = Release bend to original note

Where tablatures are tied (connected), there are 2 or
more guitars to be played at
the same time. ** Listen to original song to get
better understanding. 


"ONE" by: Metallica (Video and CD version)
As heard on "...And Justice For All"
Video: "Two of One" 

(intro) 
(begins with gunfires and battlefield sound for 22
seconds until play)
(background) James: "C'mon let's go! Getchur ass outta
this place! C'mon! Let's go! 
Move it! Move it! Move it! Move it! Move it! 
[Unintelligible Screams] 

Electric Clean
Riff A 
|--------------|--------------|--------------|-------------------|
|--------------|--------------|--------------|-------------------|
|--------------|--------------|--------------|----------------0--|
|-----4-----0--|-----4-----0--|-----4-----0--|-----4-----0-------|
|--2-----2-----|--------------|--2-----2-----|-------------------|
|--------------|--3-----3-----|--------------|--3-----3----------|


|--------------|--------------|--------------|-------------------|
|--------------|--------------|--------------|-------------------|
|-(0)----------|--------------|--------------|-------------------|
|-----4-----0--|-----4-----0--|-----4-----0--|-------------------|
|--2-----2-----|--0-----0-----|--------------|-----2-----2-------|
|--------------|--------------|--3-----3-----|--0-----2----------|

Riff B (play twice)
|--------------|--------------|--------------|-------------------|
|--------------|--------------|--------------|-------------------|
|--------------|--------------|--------------|---------------0---|
|-----4-----0--|-----4-----0--|-----4-----0--|-----4-----0-------|
|--2-----2-----|--------------|--2-----2-----|-------------------|
|--------------|--3-----3-----|--------------|--3-----3----------|


|--------------|--------------|--------------|-------------------|
|--------------|--------------|--------------|-------------------|
|--------------|--------------|--------------|-------------------|
|-----4-----0--|-----4-----0--|-----4-----0--|-------------------|
|--2-----2-----|--0-----0-----|--------------|-----2-----2-------|
|--------------|--------------|--3-----3-----|--0-----2----------|

Electric Clean 
Solo A (play parallel to Riff B)
|-----------------------|------------------------------|--------------------|
|-----------------------|-----3p2-----3p2---------3----|-3p2----------------|
|---------2---4b6b4-----|---------4-------2------------|-----4--------------|
|-----2h4---------------|------------------------------|--------------------|
|-----------------------|------------------------------|--------------------|
|-----------------------|------------------------------|--------------------|


|----------------------------------|----------------------------|
|-----7\5---5\4---4\2---2p0--------|------------------------2h3-|
|---------7-----------4-----0h2----|-2/4--------------2/4-------|
|----------------------------------|----------------------------|
|----------------------------------|----------------------------|
|----------------------------------|----------------------------|


|---------------------------|-------------------------|-------------|
|-2-------------2---3p2-----|-------------------------|-------------|
|---------2/4-----------2---|-2/4---------------------|-------------|
|---------------------------|-------------------------|-------------|
|---------------------------|-------------------------|-------------|
|---------------------------|-------------------------|-------------|


|------------------14---19----|-17-15-14-15--------------------|
|------------------x----------|-------------15-----------------|
|------------------x----------|--------------------------------|
|------------------x----------|--------------------------------|
|-----------------------------|--------------------------------|
|-----------------------------|--------------------------------|


|--------------------------------|---------------------------------|
|--------------------------------|---------------------------------|
|-----7p6-7-----9p7-9-------11p9-|-11----11/12---12---11-----------|
|--------------------------------|---------------------------------|
|--------------------------------|---------------------------------|
|--------------------------------|---------------------------------|


|---------------------------------------------|----------------12-----|
|----------------------------------12---------|----12-14---15---------|
|-----------11-12-14---------11-12------------|-11--------------------|

|--------12---------------12---------------12-|-----------------------|

|-----14---------------14---------------14----|-----------------------|

|---------------------------------------------|-----------------------|



|-----------------------|------------------------------|
|---15---14---12---14---|-14-----15-12-----------------|
|-----------------------|------------------------------|
|-----------------------|------------------------------|
|-----------------------|------------------------------|
|-----------------------|------------------------------|


|---------------------------|
|---------------------------|
|---------------------------|
|---------------------------|
|-----2-----2-----2--2h4--2-|
|--0-----2-----0------------|


Riff C
Both guitars are played parallel for the correct
effect**
Upper tablature played with electric clean guitar
Lower tablature played with nylon string acoustic
|----------------------|-----------------------|
|----------------------|-----------------------|
|----------------------|-----------------------|
|-----4-----0--0--4----|-----4-----0--4--4--0--|
|--2-----2-----------0-|-----------------------|
|----------------------|--3-----3--------------|
| | |
|----------------------|-----------------------|
|----------------------|-----------------------|
|----------------------|-----------------------|
|-----4-----0----------|-----4-----0-----------|
|--2-----2-------------|-----------------------|
|----------------------|--3-----3--------------|

|-----------------------|-----------------------|-----------------------|
|-----------------------|-----------------------|-----------------------|
|-----------------------|-----------------------|-----------------------|
|-----4-----0--0--4-----|-----4-----0--4--4--0--|-----4-----0--0--4--0--|
|--2-----2-----------0--|-----------------------|--2-----2--------------|
|-----------------------|--3-----3--------------|-----------------------|
| | | |
|-----------------------|-----------------------|-----------------------|
|-----------------------|-----------------------|-----------------------|
|-----------------------|-----------------------|-----------------------|
|-----4-----0-----------|-----4-----0-----------|-----4-----0-----------|
|--2-----2--------------|-----------------------|--2-----2--------------|
|-----------------------|--3-----3--------------|-----------------------|

|-----------------------|-----------------------|-------------------|
|-----------------------|-----------------------|-------------------|
|--------------------0--|-(0)-------------------|-------------------|
|-----4-----0--4--4-----|-----4-----0--0--4--0--|-----2h4--2--------|
|--0-----0--------------|-----------------------|----------------4--|
|-----------------------|--3-----3--------------|--0----------2-----|
| | | |
|-----------------------|-----------------------|-------------------|
|-----------------------|-----------------------|-------------------|
|-----------------------|-----------------------|-------------------|
|-----4-----0-----------|-----4-----0-----------|-----2h4--2--------|
|--0-----0--------------|-----------------------|----------------4--|
|-----------------------|--3-----3--------------|--0----------2-----|


Riff D
Both guitars are played parallel for the correct
effect**
Upper tablature played with electric clean guitar
Lower tablature played with nylon string acoustic
|-----------------------|-----------------------|------------------------|
|-----------------------|-----------------------|-----0h3p0----0h3p0-----|
|-----------------------|---------0--7-----0----|------------4--------0--|
|---------0-------------|------7--------7-------|--5---------------------|
|-----5------------7----|---5-------------------|------------------------|
|--3---------3--5-------|-----------------------|------------------------|
| | | 
| 
|-----------------------|-----------------------|------------------------|
|-----------------------|-----------------------|-------5----------------|

|-----------------------|------------7----------|----------5h7p5-4-------|
|-----------------------|---------7--------5----|-(5)-----------------5--|
|---------5--------7----|--/5-------------------|------------------------|
|--3---------3--5-------|-----------------------|------------------------|


|---------------------|--------------0------|
|---------------------|-----------0-----0---|
|---------0--10-----0-|--------0------------|
|-----10---------10---|-----9---------------|
|-/8------------------|--7------------------|
|---------------------|---------------------|
| | | 

|---------------------|---------------------| 
|---------------------|---------------------|
|---------------------|--4--5--4~~~~~~~~~---| 
|--3------3---5---5/7-|---------------------|
|---------------------|---------------------| 
|---------------------|---------------------|



|-----------------------|------------------------|
|-----------------------|-----0h3p0----0h3p0-----|
|---------0--7-----0----|------------4--------0--|
|------7--------7-------|--5---------------------|
|---5-------------------|------------------------|
|-----------------------|------------------------|
| | | 

|-----------------------|------------------------|
|-----------------------|------------------------| 

|------------7----------|------/9--7h9p7-5----4--|
|---------7--------5----|-(5)--------------------|
|--/5-------------------|------------------------|
|-----------------------|------------------------|


|---------------------|--------------0------|------------------|
|---------------------|-----------0-----0---|-----0-----0------|
|---------0--10-----0-|--------0------------|--------0---------|
|-----10---------10---|-----9---------------|------------------|
|-/8------------------|--7------------------|--7----------h3---|
|---------------------|---------------------|------------------|
| | | 
|
|---------------------|---------------------|------------------|

|---------------------|---------------------|------------------|
|--2------2---4---4/5-|--2--0-----------(0)-|------------------|

|---------------------|---------------------|------------------|
|---------------------|---------------------|------------------|

|---------------------|---------------------|------------------|

Riff E (played twice)
Both guitars are played parallel for the correct
effect**
Upper tablature played with electric clean guitar
Lower tablature played with nylon string acoustic
|----------------------|-----------------------|
|----------------------|-----------------------|
|----------------------|-----------------------|
|-----4-----0--0--4----|-----4-----0--4--4--0--|
|--2-----2-----------0-|-----------------------|
|----------------------|--3-----3--------------|
| | |
|----------------------|-----------------------|
|----------------------|-----------------------|
|----------------------|-----------------------|
|-----4-----0----------|-----4-----0-----------|
|--2-----2-------------|-----------------------|
|----------------------|--3-----3--------------|


|----------------------|-----------------------|-----------------------|
|----------------------|-----------------------|-----------------------|
|----------------------|-----------------------|-----------------------|
|-----4-----0--0--4----|-----4-----0-----0-----|-----4-----0--0--4--0--|
|--2-----2-----------0-|-----------------------|--2-----2--------------|
|----------------------|--3-----3--------------|-----------------------|
| | | 
|
|----------------------|-----------------------|-----------------------|
|----------------------|-----------------------|-----------------------|
|----------------------|-----------------------|-----------------------|
|-----4-----0----------|-----4-----0-----------|-----4------0----------|
|--2-----2-------------|-----------------------|--2-----2--------------|
|----------------------|--3-----3--------------|-----------------------|



|-----------------------|-----------------------|-------------|
|-----------------------|-----------------------|-------------|
|--------------------0--|-(0)-------------------|-------------|
|-----4-----0--4--4-----|-----4-----0--0--4--0--|-------------|
|--0-----0--------------|-----------------------|-----2----2--|
|-----------------------|--3-----3--------------|--0----2-----|
| | | 
| 
|-----------------------|-----------------------|-------------|
|-----------------------|-----------------------|-------------|
|-----------------------|-----------------------|-------------|
|-----4-----0-----------|-----4-----0-----------|-------------|
|--0-----0--------------|-----------------------|-----2----2--|
|-----------------------|--3-----3--------------|--0----2-----|

Riff F
Played with Heavy Distortion
|------------------------|---------------|-------------|
|------------------------|---------------|-------------|
|-------2-4-2---------4--|-2-----4-6-4-2-|-------------|
|-5-----2-4-2-5---4---4--|-2-----4-6-4-2-|-------------|
|-5-----0-2-0-5---4---2--|-0-----2-4-2-0-|-3---4---5~~~|
|-3-----------3---2------|---------------|-------------|

Riff D
Riff E
Riff F


Solo B
Played parallel to Riff D (played twice)
|----------------------------|----------------------|----------------------|
|-------------10p7-----7-----|-10-----10---8---7----|-7h8p7----------------|
|------------------7---------|--------------------9-|--------7-------------|
|----------------------------|----------------------|----------------------|
|-(5)------------------------|----------------------|----------------------|
|----------------------------|----------------------|----------------------|


|-/10-8-7-----7---8-|---------17p14-----14-|-17---17-15--14---15p14--------|
|---------10--------|-8~~~~~---------15----|-------------------------------|
|-------------------|----------------------|-------------------------------|
|-------------------|----------------------|-------------------------------|
|-------------------|----------------------|-------------------------------|
|-------------------|----------------------|-------------------------------|


|------------------15--17--|--19p17p15-19p17p15-19p17p15-14-15----14-------|
|-15------15--19-----------|-----------------------------------17----15----|
|--------------------------|-----------------------------------------------|
|--------------------------|-----------------------------------------------|
|--------------------------|-----------------------------------------------|
|--------------------------|-----------------------------------------------|


|------|-------------------------------|-----------------------------------|
|------|-/8---8--8\7-------------------|-/13----13---13---13---12----------|
|------|-/7---7--7----7----------------|-/12----12---12---12---12----------|
|------|-------------------------------|-----------------------------------|
|------|-------------------------------|-----------------------------------|
|------|-------------------------------|-----------------------------------|

T T T T T 
T
|---20p17p13---20p17p13---20p17p13---20p17p13---20p17p13---20p17p13--------|
|--------------------------------------------------------------------------|
|--------------------------------------------------------------------------|
|--------------------------------------------------------------------------|
|--------------------------------------------------------------------------|
|--------------------------------------------------------------------------|


T T
|---20p12h13p12---20p12h13p12-|
|-----------------------------|
|-----------------------------|
|-----------------------------|
|-----------------------------|
|-----------------------------|

Riff G
|------------------------|---------------|---------|
|------------------------|---------------|---------|
|-------2-4-2---------4--|-2-----4-6-4-2-|-4----6--|
|-5-----2-4-2-5---4---4--|-2-----4-6-4-2-|-4----6--|
|-5-----0-2-0-5---4---2--|-0-----2-4-2-0-|-2----4--|
|-3-----------3---2------|---------------|---------|

PM...
|------------------------|
|------------------------|
|-------2-4-2---------4--|
|-5-----2-4-2-5---4---4--|
|-5-----0-2-0-5---4---2--|
|-3-----------3---2------|

Riff H
All 3 guitar parts are played simultaneously.**
Guitars are played with heavy distortion with lib.
PM... PM.... PM PM PM PM
|------------------------|-------------|-------------|
|------------------------|-------------|-------------|
|------------------------|-4---4---4---|-5---5---5---|
|--2---2-0-2-0---5-5-5-5-|-4---4---4---|-5---5---5---|
|--3---3-2-3-0-2-5-5-5-5-|-2---2---2---|-3---3---3---|
|--------------3-3-3-3-3-|-------2---2-|-------3---3-|
| | | |
|------------------------|-------------|-------------|
|------------------------|-------------|-------------|
|--2---2-0-2/4-4---4-5-7-|-4-------4---|-5-------5---|
|--2---2-0-2/5-5---5-7-9-|-4-------4---|-5-------5---|
|------------------------|-------------|-------------|
|------------------------|-------------|-------------|
| | | |
|--------------------0---|-------------|-------------|
|--5---5-5-5/8-8---8-8-8-|-7-------7---|-8-------8---|
|--5---5-4-5/7-7---7---7-|-8-------8---|-9-------9---|
|------------------------|-9-------9---|-10------10--|
|------------------------|-------------|-------------|
|------------------------|-------------|-------------|Riff
I (played twice)
PM........ PM PM 
PM PM
|-------------------|----------------|---------------|---------------------|
|-------------------|----------------|---------------|---------------------|
|-------------------|----------------|---4-----4-----|-5--5-5--------5-----|
|--5--5--5--7--5----|-4--4--4--5--4\-|---4-----4-----|-5--5-5--5-----5-----|
|--7--7--7--7--7--5-|-5--5--5--5--5\-|---2-----2-----|-3--3-3--3-----3-----|
|-------------------|----------------|------2-----2--|------------3-----3--|


PM.......... PM......... 
PM..........
|---------------|-----------------|------------------------------------|
|---------------|-----------------|------------------------------------|
|--0------(0)---|-----------------|------------------------------------|
|--2------(2)---|--------------2--|--------------2-(2)-------------2-3-|
|--3------(3)---|--------------2--|--------------2-(2)-------------2-3-|
|--0------(0)---|--0-0-0-0-0-0-0--|--0-0-0-0-0-0-------0-0-0-0-0-0-----|

PM......... PM.......... PM......... 
PM.........
|--------------------------------|-----------------------------------|
|--------------------------------|-----------------------------------|
|--------------------------------|-----------------------------------|
|--------------------------------|------------------------------2-3--|
|--------------2---------------2-|--------------2---------------2-3--|
|--0-0-0-0-0-0-0---0-0-0-0-0-0-0-|--0-0-0-0-0-0-0---0-0-0-0-0-0------|

PM......... PM......... PM......... 
PM.........
|------------------------------------|------------------------------------|
|------------------------------------|------------------------------------|
|------------------------------------|------------------------------------|
|------------------------------------|------------------------------------|
|--------------7-(7)-------------7-8-|-------------5-(5)-------------5/8--|
|--0-0-0-0-0-0-------0-0-0-0-0-0-----|-0-0-0-0-0-0-------0-0-0-0-0-0------|

PM......... PM......... PM......... 
PM.........
|------------------------------------|------------------------------------|
|------------------------------------|------------------------------------|
|------------------------------------|------------------------------------|
|------------------------------------|------------------------------------|
|--------------7-(7)-------------7-8-|-------------5-(5)-------------5----|
|--0-0-0-0-0-0-------0-0-0-0-0-0-----|-0-0-0-0-0-0-------0-0-0-0-0-0---7--|

PM.......... PM......... PM......... 
PM.........
|---------------------------------|-----------------------------------|
|---------------------------------|-----------------------------------|
|---------------------------------|-----------------------------------|
|---------------------------------|------------------------------2-3--|
|--------------2---------------2--|--------------2---------------2-3--|
|--0-0-0-0-0-0-0---0-0-0-0-0-0-0--|--0-0-0-0-0-0-0---0-0-0-0-0-0------|


Double-time
PM......... PM.......... PM....
|-----------------------------------------|
|-----------------------------------------|
|-----------------------------------------|
|--------------2--------------2--------3--|
|--------------2--------------2--------3--|
|--0-0-0-0-0-0----0-0-0-0-0-0----0-0-0----|

PM......... PM............. PM...
|-------------------------|--------------------|
|-------------------------|--------------------|
|-------------------------|--------------------|
|---------------2---------|--------2--------3--|
|---------------2---------|--------2--------3--|
|--0-0-0-0-0-0-----0-0-0--|--0-0-0----0-0-0----|



T T T T T T 
T T
|-19p15p12--19p15p12-19p15p12-19p15p12-19p15p12-19p15p12-19p15p12-19p15p12-|
|--------------------------------------------------------------------------|
|--------------------------------------------------------------------------|
|--------------------------------------------------------------------------|
|--------------------------------------------------------------------------|
|--------------------------------------------------------------------------|


T T T T T T 
T T
|-20p15p12--20p15p12-20p15p12-20p15p12-20p15p12-20p15p12-20p15p12-20p15p12-|
|--------------------------------------------------------------------------|
|--------------------------------------------------------------------------|
|--------------------------------------------------------------------------|
|--------------------------------------------------------------------------|
|--------------------------------------------------------------------------|


T T T T T T 
T T
|--------------------------------------------------------------------------|
|-19p15p12--19p15p12-19p15p12-19p15p12-19p15p12-19p15p12-19p15p12-19p15p12-|
|--------------------------------------------------------------------------|
|--------------------------------------------------------------------------|
|--------------------------------------------------------------------------|
|--------------------------------------------------------------------------|

T T T T T T 
T T
|--------------------------------------------------------------------------|
|-20p15p12--20p15p12-20p15p12-20p15p12-20p15p12-20p15p12-20p15p12-20p15p12-|
|--------------------------------------------------------------------------|
|--------------------------------------------------------------------------|
|--------------------------------------------------------------------------|
|--------------------------------------------------------------------------|

T T T T T T 
T T
|--------------------------------------------------------------------------|
|-17p13p10--17p13p10-17p13p10-17p13p10-17p13p10-17p13p10-17p13p10-17p13p10-|
|--------------------------------------------------------------------------|
|--------------------------------------------------------------------------|
|--------------------------------------------------------------------------|
|--------------------------------------------------------------------------|

T T T T T T 
T T
|--------------------------------------------------------------------------|
|-18p13p10--18p13p10-18p13p10-18p13p10-18p13p10-18p13p10-18p13p10-18p13p10-|
|--------------------------------------------------------------------------|
|--------------------------------------------------------------------------|
|--------------------------------------------------------------------------|
|--------------------------------------------------------------------------|

T T T T T T T T T
T T T
|---------------------------------------|--------------------------------|
|-17p12h14-17p12-17p10-17p12-17p10-17p8-|-17p10-17p8-17p7-17p8-17p7-17p5-|
|---------------------------------------|--------------------------------|
|---------------------------------------|--------------------------------|
|---------------------------------------|--------------------------------|
|---------------------------------------|--------------------------------|

|------------------------------14-14-14-|-15-15-15--17-17-17-----------|
|-/12-12-12--12-12-12--12--12-----------|---------------------15-15-15-|
|---------------------------------------|------------------------------|
|---------------------------------------|------------------------------|
|---------------------------------------|------------------------------|
|---------------------------------------|------------------------------|

|-17-17-17-17-|-22^24-------22^24----22^24~|~~~~~~~~\---------------15-|
|-------------|----------------------------|--------------/17----------|
|-------------|----------------------------|---------------------------|
|-------------|----------------------------|---------------------------|
|-------------|----------------------------|---------------------------|
|-------------|----------------------------|---------------------------|

|-17p15---------------15h17p15-------------|-15h17p15-------------15h17p15-|
|--------17-15-17-19-----------17-15-17-19-|----------17-15-17-19----------|
|------------------------------------------|-------------------------------|
|------------------------------------------|-------------------------------|
|------------------------------------------|-------------------------------|
|------------------------------------------|-------------------------------|

|-----------15-|-17p15------------15-17p15---------15h17----|
|-17-17-19-----|--------15-17-19------------17--15----------|
|--------------|--------------------------------------------|
|--------------|--------------------------------------------|
|--------------|--------------------------------------------|
|--------------|--------------------------------------------|

|-19p17p15-----19p17p15-----19p17p15------19p17p15----------|
|----------15-----------15------------15------------15------|
|-----------------------------------------------------------|
|-----------------------------------------------------------|
|-----------------------------------------------------------|
|-----------------------------------------------------------|

|-19p17--------19p17--------19p17---------19p17p15----------|
|----------15-----------15------------15--------------------|
|-----------------------------------------------------------|
|-----------------------------------------------------------|
|-----------------------------------------------------------|
|-----------------------------------------------------------|

|-------15-------15-------15-------15-|-18^19-15-------15-18^19-15-------15-|
|-18^20----18^20----18^20----18^20----|----------18^20-------------18^20----|
|-------------------------------------|-------------------------------------|
|-------------------------------------|-------------------------------------|
|-------------------------------------|-------------------------------------|
|-------------------------------------|-------------------------------------|

|-19p17p15-17----17p15----15----------|-------------------------------------|
|----------------------19-------------|-19p17p15-17-----15h17p15\13--15-----|
|-------------------------------------|-------------------------------------|
|-------------------------------------|-------------------------------------|
|-------------------------------------|-------------------------------------|
|-------------------------------------|-------------------------------------|

|------------------------------------------|--------------------------------|
|-13h15p13\12--13-----12h13p12----12-------|--------------------------------|
|------------------------------14----14p12-|-14p12----12----12--14^-14^-14^-|
|------------------------------------------|-------14----14-----------------|
|------------------------------------------|--------------------------------|
|------------------------------------------|--------------------------------|

|----------------------------|---------------------|------------------------|
|----------------------------|---------------------|------------------------|
|-14^16-14^16-----v14p12-----|-12-----12-----------|------------------------|
|-------------------------14-|----14------14-13-12-|------------------------|
|----------------------------|---------------------|-14-13-12-10~~~~~-------|
|----------------------------|---------------------|------------------------|


|---------------------------|---------------------------|-------------------|
|---------15^----------15^--|---------15^----------15^--|-17^-v-^-v-^-17^v^-|
|---------15^----------15^--|---------15^----------15^--|-17^-v---v-^-17^v^-|
|-17--17--------17--17------|-17--17--------17--17------|-------------------|
|---------------------------|---------------------------|-------------------|
|---------------------------|---------------------------|-------------------|
|
| PM.. PM.. 
PM..........
|---------------------------|---------------------------|-------------------|
|---------------------------|---------------------------|-------------------|
|---------------------------|----------.-/--------------|-------------------|
|---------5------------5----|-----------/-.-------------|-------------------|
|---------5------------5----|---------------------------|-------------3--3--|
|--3--3---3-----3--3---3----|---------------------------|-1-1-1-1-1-1-1--1--|


different notation : ^ := bend 1 fret up; v :=
release 1 fret


|---------------------|------------------------|----------------------------|
|-v(17)-^-v--15----15-|--------15^---------15^-|-17-----17-----15^-------15-|
|-v(17)-^-v--15----15-|--------15^---------15^-|-17-----17-----15^----------|
|---------------17----|-17--17------17--17-----|----------------------------|
|---------------------|------------------------|----------------------------|
|---------------------|------------------------|----------------------------|
|
|
|---------------------|------------------------|---------------------------|
|---------------------|------------------------|---------------------------|
|---------------------|------------------------|----------.-/--------------|
|---------------------|-------5-----------5----|-----------/-.-------------|
|-------------3---3---|-------5-----------5----|---------------------------|
|-1-1-1-1-1-1-1---1---|-3--3--3-----3--3--3----|---------------------------|
PM...........| PM...| PM...|


|-------15--------15--------15--------15-|-------15--------15--------------|
|-18^20-----18^20-----18^20-----18^20----|-18^20-----18^20-----18^20~~~~~~-|
|----------------------------------------|---------------------------------|
|----------------------------------------|---------------------------------|
|----------------------------------------|---------------------------------|
|----------------------------------------|---------------------------------|
|
| PM..............
|----------------------------------------|---------------------------------|
|----------------------------------------|---------------------------------|
|----------------------------------------|---------------.-/---------------|
|----------------------------------------|----------------/-.--------------|
|--------------------3--------3----------|---------------------------------|
|--1--1--1--1--1--1--1--------1----------|---------------------------------|


PM...................................................................
|------------------------------------|------------------------------------|
|------------------------------------|------------------------------------|
|------------------------------------|------------------------------------|
|------------------------------------|------------------------------------|
|---------------------------5-5-5----|-5-5-5----4-4-4---3-3-3---2-2-2-----|
|-3-3-3--3-3-3--3--------------------|------------------------------------|



PM.......... PM............. PM... 
|-------------------------|--------------------|
|-------------------------|--------------------|
|-------------------------|--------------------|
|---------------2---------|--------2--------3--|
|---------------2---------|--------2--------3--|
|--0-0-0-0-0-0-----0-0-0--|--0-0-0----0-0-0----|



PM.................................................................
E------------------------------------|------------------------------------|
B------------------------------------|------------------------------------|
G------------------------------------|------------------------------------|
D------------------------------------|------------------------------------|
A---------------------------5-5-5----|-5-5-5----4-4-4---3-3-3---2-2-2-----|
E-0-0-0--0-0-0--0--------------------|------------------------------------|


Solo
Played with two guitars
|-----------------------5--5--5------|------------------7--7--7--5--------|
|-8--8--8--7b8----------7--7--7------|--8b9-------5-----8--8--8--7--------|
|-9--9--9--7b8---7-------------------|--8b9-------------------------------|
|----------------9-------------------|------------9-----------------------|
|------------------------------------|------------------------------------|
|------------------------------------|------------------------------------|

|-7--5-----5-------5-----------------|------------------------------------|
|-8--7--8--7-------7--8--7--8--------|-8--7--5--7--------7--5-----5-------|
|-------9-------------9--7--9--------|-9--7--6--7--------7--6--7--6-------|
|------------------------------------|-------------------------9----------|
|------------------------------------|------------------------------------|
|------------------------------------|------------------------------------|

|-----------------------5--5--5------|------------------7--7--7--5--------|
|-8--8--8--7b8----------7--7--7------|--8b9-------5-----8--8--8--7--------|
|-9--9--9--7b8---7-------------------|--8b9-------------------------------|
|----------------9-------------------|------------9-----------------------|
|------------------------------------|------------------------------------|
|------------------------------------|------------------------------------|



|-7--5-----5-------5-----------------|-8--7--5--7--------7--5-----5-------|
|-8--7--8--7-------7--8--7--8--------|-10-8--7--8--------8--7--8--7-------|
|-------9-------------9--7--9--------|-------------------------9----------|
|------------------------------------|------------------------------------|
|------------------------------------|------------------------------------|
|------------------------------------|------------------------------------|

|-----------------------5--5--5------|------------------7--7--7--5--------|
|-8--8--8--7b8----------7--7--7------|--8b9-------5-----8--8--8--7--------|
|-9--9--9--7b8---7-------------------|--8b9-------------------------------|
|----------------9-------------------|------------9-----------------------|
|------------------------------------|------------------------------------|
|------------------------------------|------------------------------------|


|------------------------------------|------------------------------------|
|-5----------------------------------|------------------------------------|
|-6--7--6--7-------7--6--4--6--------|-6--4--2--4--------4--2--0--2-------|
|----9--7--9-------9--7--5--7--------|-7--5--4--5--------4--2--0--2-------|
|------------------------------------|------------------------------------|
|------------------------------------|------------------------------------|

|-----------------------5--5--5------|------------------7--7--7--5--------|
|-8--8--8--7b8----------7--7--7------|--8b9-------5-----8--8--8--7--------|
|-9--9--9--7b8---7-------------------|--8b9-------------------------------|
|----------------9-------------------|------------9-----------------------|
|------------------------------------|------------------------------------|
|------------------------------------|------------------------------------|

|-7--5-----5-------5-----------------|------------------------------------|
|-8--7--8--7-------7--8--7--8--------|-8--7--5--7--------7--5-----5-------|
|-------9-------------9--7--9--------|-9--7--6--7--------7--6--7--6-------|
|------------------------------------|-------------------------9----------|
|------------------------------------|------------------------------------|
|------------------------------------|------------------------------------|

|------------------------------------|------------------------------------|
|-5----------------------------------|------------------------------------|
|-6--7--6--7-------7--6--4--6--------|-6--4--2--4--------4--2--0--2-------|
|----9--7--9-------9--7--5--7--------|-7--5--4--5--------4--2--0--2-------|
|------------------------------------|------------------------------------|
|------------------------------------|------------------------------------|

Play 4 times 
PM......... PM............. PM...
|-------------------------|--------------------|
|-------------------------|--------------------|
|-------------------------|--------------------|
|---------------2---------|--------2--------3--|
|---------------2---------|--------2--------3--|
|--0-0-0-0-0-0-----0-0-0--|--0-0-0----0-0-0----|

PM........ PM... PM... PM...
|-------------------------|--------------------|
|-------------------------|--------------------|
|-------------------------|--------------------|
|-------------5--------5--|--------5--------5--|
|-------------5--------5--|--------5--------5--|
|--3-----3----3--3--3--3--|--3--3--3--3--3--3--|

PM......... PM............. PM.... 
|-------------------------|--------------------|
|-------------------------|--------------------|
|-------------------------|--------------------|
|---------------2---------|--------2--------3--|
|---------------2---------|--------2--------3--|
|--0-0-0-0-0-0-----0-0-0--|--0-0-0----0-0-0----|

PM........ PM... PM... PM... 
|-------------------------|--------------------|
|-------------------------|--------------------|
|-------------------------|--------------------|
|-------------5--------5--|--------5--------5--|
|-------------5--------5--|--------5--------5--|
|--3-----3----3--3--3--3--|--3--3--3--3--3--3--|

Play 4 times 
PM......... PM... PM... 
|-------------------------|--------------------|
|-------------------------|--------------------|
|-------------------------|--------------------|
|---------------2------2--|--------3--------3--|
|---------------2------2--|--------3--------3--|
|--0-0-0-0-0-0---------0--|--1--1--1--1--1--1--|

PM.......... PM.. PM.. PM..
PM...
|-------------------------|--------------------|--------------------|
|-------------------------|--------------------|--------------------|
|-------------------------|--------------------|--------------------|
|---------------2------2--|--------5--------5--|--------5--------5--|
|---------------2------2--|--------5--------5--|--------5--------5--|
|--0-0-0-0-0-0---------0--|--3--3--3--3--3--3--|--3--3--3--3--3--3--|

PM......... PM............. PM....
|-------------------------|--------------------|
|-------------------------|--------------------|
|-------------------------|--------------------|
|---------------2---------|--------2--------3--|
|---------------2---------|--------2--------3--|
|--0-0-0-0-0-0-----0-0-0--|--0-0-0----0-0-0----|
PM.............................................
|------------------------------------|-----------------------------------|
|------------------------------------|-----------------------------------|
|------------------------------------|-----------------------------------|
|------------------------------------|-----------------------------------|
|------------------------------------|-----------------------------------|
|--0-0-0--0-0-0--0------------0-0-0--|--0-0-0--0-------------------------|

I can't remember anything
Can't tell if this is true or dream
Deep down inside I feel to scream
This terrible silence stops me
Now that the war is through with me
I'm waking up, I cannot see
That there's not much left of me
Nothing is real but pain now

Hold my breath as I wish for death
Oh, please God wake me

Back in the womb it's much too real
In pumps life that I must feel
But can't look forward to reaveal
Look to the time when I'll live
Fed through the tubes that sticks in me
Just like a wartime novelty
Tied to machines that make me be
Cut this life off from me

Hold my breath as I wish for death
Oh, please God wake me

Now the world is gone, I'm just one
Oh, God help me
Hold my breath as I wish for death
Oh, please God help me

Darkness
Imprisoning me
All that I see
Absolute horror
I cannot live
I cannot die 
Trapped in myself
Body my holding cell

Landmine
Has taken my sight
Taken my speech
Taken my hearing
Taken my arms
Taken my legs
Taken my soul
Left me with life in hell

Kay, this took me a while to do, hope you enjoy it. 
Any questions or comments, 
e-mail me at hillsdale_saint@yahoo.com  .