Date: Fri, 8 Dec 1995
From: Stefanou Stefanos 


  - Of Wolf And Man -
  From : METALLICA
  Album: METALLICA
  Words & music by J.Hetfield,L.Ulrich,K.Hammett

  FROM  A.Stefanou 

  INTRO
e:------------|-----------|--------------|--------------|Gtr 1
B:------------|-----------|--------------|--------------|
G:------------|-----------|--------------|--------------|
D:-2--2--2--2-|2--2--2--2-|2--2--2--2----|2--2--2--2----|
A:-2--2--2--2-|2--2--2--2-|2--2--2--2----|2--2--2--2----|
E:-0--0--0--0-|0--0--0--0-|0--0--0--0----|0--0--0--0----|
              |           |              |              |
e:------------|-----------|--------------|--------------|Gtr 2
B:------------|-----------|--------------|--------------|
G:------------|-----------|--------------|--------------|
D:------------|-----------|-9--10-11-12--|-9--10-11-13--|
A:------------|-----------|-7--8--9--10--|-7--8--9--11--|
E:------------|-----------|--------------|--------------|


e:--------------|--------------|
B:--------------|--------------|
G:--------------|--------------|
D:-2--2--2--2---|-2--2--2--2---|
A:-2--2--2--2---|-2--2--2--2---|
E:-0--0--0--0---|-0--0--0--0---|
                |              |
e:--------------|--------------|
B:--------------|--------------|
G:--------------|--------------|
D:--9--10-11-12-|--9--5--5--5--|
A:--7--8--9--10-|--7--3--3--3--|
E:--------------|--------------|

e:-----------------------------|-----------------------------|
B:-----------------------------|-----------------------------|
G:-----------------------------|-----------------------------|
D:---------------------4-----3-|---------------------4-----3-|
A:------------3--2-----2-----1-|------------3--2-----2-----1-|
E:-0----0--0--1--0--0-----0----|-0----0--0--1--0--0-----0----|



e:---------------------------------|
B:---------------------------------|
G:---------------------------------|
D:----------------------------4--3-|
A:------------3--2------------2--1-|
E:-0----0--0--1--0--0---0--0-------|


                F5  E5    B5   Bb5  E5
Off through the new day's mist I    run.

             F5  E5    B5   Bb5  F5   E5
Out from the new day's mist  I   have come.

  F5 E5              F5 E5
I    hunt, therefore I  am.

        F5  E5
Harvest the land.

          F5  E5       B5  Bb5
Taking of the fal__len     lamb.


e:----------------------------|-------------------------------|-|
B:----------------------------|-------------------------------|-|
G:----------------------------|-------------------------------|-|
D:--------------------4-----3-|-------------------------------|-|
A:-----------3--2-----2-----1-|--------5-7-5-0-5-7---5-7--7\--|-|
E:0----0--0--1--0--0-----0----|--5--7-------------------------|-|


                F5  E5    B5   Bb5  E5
Off through the new day's mist I    run.

             F5  E5    B5   Bb5  F5   E5
Out from the new day's mist  I   have come.


   F5 E5    B5 Bb5
We    shift,      pulsing with the earth.

               F5 E5
Company we keep,     roaming the land while you

                           Shape shift.
   sleep.      Oh...                  Nose to the wind.
e:------------------|----------------||--------------------------------|
B:------------------|----------------||--------------------------------|
G:------------------|----------------||--------------------------------|
D:-2---2---2---2----|-----4-------3--||----------------------4-------3-|
A:-2---2---2---2----|-----2-------1--||--2---2---3---2-------2-------1-|
E:-0---0---0---0----|-0-------0------||--0---0---1---0---0-------0-----|
                    |
e:------------------|
B:------------------|
G:------------------|
D:--9---10--11--12--|
A:--7---8---9---10--|
E:------------------|

Shape shift.
                         Move shift
   Feeling I've been               All senses clean
e:-------------------------------|-------------------------------|
B:-------------------------------|-------------------------------|
G:-------------------------------|-------------------------------|
D:---------------------6-------5-|---------------------6-------5-|
A:-2---2---3---2-------4-------3-|-4---4---5---4-------4-------3-|
E:-0---0---1---0---0-------0-----|-2---2---3---2---0-------0-----|

Earth's gift

(Back to the meaning),back to the meaning of...         life.
e:-----------------------------------------|------------------|
B:-----------------------------------------|------------------|
G:-----------------------------------------|------------------|
D:-----------------------------------------|------------------|
A:-----------5---4-------------5---4-------|-4---4---4--------|
E:-2---2-2---3---2---2---2-2---3---2-------|-2---2---2---14\--|

- Additional lyrics :

Bright is the moon,high in starlight.
Chill in the air,cold as steel tonight.
We shift.Call of the wild.
Fear in your eyes.It's later than you realized.

              ********************

That's all for now.For any comments: A.Stefanou 




From: dosc@comnets.rwth-aachen.de

Solo from the song "Of Wolf and Man" by Metallica. This solo contains some 
nice patterns
(marked with *) which you can use for own solos.

e:----------------------------------------|
B:----------------------------------------|
G:---4p2p0---0----4p2p0---0----4p2p0------|
D:---------2------------2------------2p0--|
A:----------------------------------------|
E:----------------------------------------|

                   AH    AH  pitch F# (at 23)
|-------------------------------------------------|
|-------------------------------------------------|
|--4p2p0------------4p2p0-4p2p0-------------------|
|-------4p2p0-------------------4p2p0-4p2p0-------|
|-------------4p2p0-------------------------4p2p0-|
|-------------------------------------------------|


|----------------------------------------------------------------------------|
|----------------------------------------------------------------------------|
|------------------------------------------------------------12-14-14b(16)---|
|------------------------------------------------------12h14-----------------|
|-2p0-3p0-4p0-5p0-6p0-7p0-8p0-9p0-10p0-11p0-12p0-12h14-----------------------|
|----------------------------------------------------------------------------|


           repeat this pattern 8 times: <-----------> *

|-------------------------------------- ------------- -|
|---------------12-15---------12-15p12- ----12h15p12- -|
|-12-------9s14-------14b(16)---------- -14---------- -|
|----14-------------------------------- ------------- -|
|-------------------------------------- ------------- -|
|-------------------------------------- ------------- -|

             ~~~~~~~~~~~~
|-------------------------12------------------12----------|
|-15b(17)-15b(17)----(17)----15p12---------12----15p12----|
|----------------------------------14b(16)----------------|
|---------------------------------------------------------|
|---------------------------------------------------------|
|---------------------------------------------------------|


|---------12-12---------------------------------------------------|
|---------------15p12---------12-15p12----------------------------|
|-14b(16)-------------14b(16)----------14p12----12-14b---(16)-----|
|--------------------------------------------14-------------------|
|-----------------------------------------------------------------|
|-----------------------------------------------------------------|

     ~~~~~~~~~~~         *
|----------------------|---------------------------------------|
|----------------------|-15--15-15--15-15--17p15----15--15-15--|
|-12-------------------|-15--15-15--15-15--17p15----15--15-15--|
|----14------(14)\8/17-|-------------------------17------------|
|----------------------|---------------------------------------|
|----------------------|---------------------------------------|


|-----------------------------------------------|
|-17p15-----------------------------------------|
|-17p15----15-17p15----15-17p15------------15\--|
|-------17----------17----------17-15-17--------|
|-----------------------------------------------|
|-----------------------------------------------|

*
|------------------------------------|
|---------------------------8----8---|
|----------8----8--10-8-10----10-----|
|-10-8-10----10----------------------|
|------------------------------------|
|------------------------------------|


                     play 11 bent to 13: <-----------------------------

|---------8------------------------------------------------------------|
|-11b(13)---11p8---------8-11p8-11b(13)--[13]-[13]-[13]-[13]-[13]-[13]-|
|----------------10b(11)-----------------------------------------------|
|----------------------------------------------------------------------|
|----------------------------------------------------------------------|
|----------------------------------------------------------------------|

--------------------------------------------------------->

|---------------------------------------------------------|
|-[13]--[13]-[13]-[13]-[13]--[13]--[13]--[13]--[13]--[13]-|
|---------------------------------------------------------|
|---------------------------------------------------------|
|---------------------------------------------------------|
|---------------------------------------------------------|


                     ~~~~~~~~~
|-------------------------------------|
|-(13)-------r(11)-8------------------|
|--------------------9----------------|
|------------------------------10/14--|
|-------------------------------------|
|-------------------------------------|

repeat this 4 times:   *
   <-------------------->

|- ---------------------- ----------------------|------------|----------------|
|- -------------14p12---- -------------------12-|-(12)----12-|-(12)---(12)\---|
|- -12h14p12------------- -12h14p12----------12-|-(12)----12-|-(12)---(12)\---|
|- ----------14-------14- ----------14-12-14----|------------|----------------|
|- ---------------------- ----------------------|------------|----------------|
|- ---------------------- ----------------------|------------|----------------|
				   		|            |
					       e|------------|
					       B|------------|
					       G|------------|
					       D|------------|
					       A|-5---5-4-(4)|
					       E|-3-0-3-2-(2)|


Post solo

e:--------------------------|-----------------------------|Rhytm part 12X
B:--------------------------|-----------------------------|
G:--------------------------|-----------------------------|
D:--------------------------|-----------------------------|
A:-------3-2----------------|-----------------------------|
E:-0--00-1-0--0--0-0-0--0-0-|-0--0-0-0--0-0-0--0-0-0--0-0-|


e|---0-----0-----|---0-------0-----|Clean part
B|-----3-----3---|-----3---3---3---|Gtr 3
G|-------0-------|-------0-------0-|From beginning of post solo
D|-2-----------2-|(2)--------------|until riff A begins.
A|---------------|-----------------|
E|---------------|-----------------|

e|---------|--------------|--------------------|--------------|Solo part.
B|-15b17-v-|--------------|-15b--15-12---------|--------------|
G|---------|-14b16-(16)-r-|------------14-12-v-|--------------|
D|---------|--------------|--------------------|-7b9-(9)-r-5v-|
A|---------|--------------|--------------------|--------------|
E|---------|--------------|--------------------|--------------|

Riff A
e:------------------------|4X
B:------------------------|
G:------------------------|
D:--------------------6-5-|
A:--------5-4---------4-3-|
E:-2--2-2-3-2--2--2-2-----|


e|---------|---------|
B|---------|---------|
G|---------|---------|
D|-4-5-6-7-|-5-6-7-8-|
A|-2-3-4-5-|-3-4-5-6-|
E|---------|---------|
|         |         |
e|---------|---------|
B|---------|---------|Use trem
G|------...|.........|bar to bend.
D|----7b---|---------|Bend slowly.
A|----7b---|---------|
E|---------|---------|

Chorus, then:

   of wolf......       and man.
e|---------|----------|-------|---------|
B|---------|----------|-------|---------|
G|---------|----------|-------|---------|
D|---4---3-|-(3)---6-5|-(5)---|-5-6-7-8-|
A|---2---1-|-(1)---4-3|-(3)---|-3-4-5-6-|
E|-0---0---|----------|-------|---------|


e:----------------------------|-------------------------------|2X
B:----------------------------|-------------------------------|
G:----------------------------|-------------------------------|
D:--------------------4-----3-|-------------------------------|
A:-----------3--2-----2-----1-|--------5-7-5-0-5-7---5-7--7\--|
E:0----0--0--1--0--0-----0----|--5--7-------------------------|


e|----------------|------|--------------|
B|----------------|------|--------------|
G|----------------|------|--------------|
D|----------------|------|-9--10-11-12--|
A|--(7)--5---5-4--|-(4)--|-7--8--9--10--|
E|-------3-0-3-2--|-(2)--|--------------|
 |                |      |              |
e|----------------|------|--------------|
B|----------------|------|--------------|
G|----------------|------|--------------|
D|----------------|------|-2--2--2--2---|
A|----------------|------|-2--2--2--2---|
E|----------------|------|-0--0--0--0---|



Additions by mattinurro@hotmail.com