METALLICA 
			...AND JUSTICE FOR ALL


I tabbed this using Powertab Editor and then converted it to standard text
so the tab runs completely from the beginning to the end of the song rather
than using seperate riffs and then explaining the order

 h   - hammer-on
 p   - pull-off
 b   - bend
 pb  - pre-bend
 r   - bend release (if no number after the r, then release immediately)
 /\  - slide into or out of (from/to "nowhere")
 s   - legato slide
 S   - shift slide
 - natural harmonic
[n]  - artificial harmonic
n(n) - tapped harmonic
 ~   - vibrato
 tr  - trill
 T   - tap
 TP  - trem. picking
 PM  - palm muting
\n/  - tremolo bar dip; n = amount to dip
 \n  - tremolo bar down
 n/  - tremolo bar up
/n\  - tremolo bar inverted dip
 =   - hold bend; also acts as connecting device for hammers/pulls
 <> - volume swell (louder/softer)



Standard tuning - E A D G B E


Intro
  3/4
    Gtr I
||--------------------|---------------|-------------------|
||o-------------------|---------------|-------------------|
||--------------------|---------------|-------------------|
||--6-7-9----7--6h7p6-|-4-5-5-4--7--4-|-2-3-5----3--2h3p2-|
||o-7-----7-(7)-------|-5-----5-(5)-5-|-3-----3-(3)-------|
||--0-----------------|---------------|-------------------|
|
|   Gtr II
||--------------------|---------------|-------------------|
||o-------------------|---------------|-------------------|
||--4-----4-(4)-------|-2-----2-(2)-2-|-0-----0-(0)-------|
||--6-----6-(6)-------|-4-----4-(4)-4-|-2-----2-(2)-------|
||o-7-----7-(7)-------|-5-----5-(5)-5-|-3-----3-(3)-------|
||--------------------|---------------|-------------------|


|---------------|---------------|---------||-||----------------------|
|---------------|---------------|--------o||-||o---------------------|
|---------------|-------------2-|---------||-||----------------------|
|-0-2-2-0--2--0-|-0-2-2-0--2----|-3-------||-||--6-7-9------7--6h7p6-|
|-2-----2-(2)-2-|-1-----1-(1)---|-1------o||-||o-7-----7---(7)-------|
|---------------|---------------|---------||-||--0-------------------|
|
|---------------|---------------|---------||-||----------------------|
|---------------|---------------|--------o||-||o---------------------|
|---------------|---------------|---------||-||--4-----4---(4)-------|
|-0-----0--0--0-|-0-----0--0----|-3-------||-||--6-----6---(6)-------|
|-2-----2--2--2-|-1-----1--1----|-1------o||-||o-7-----7---(7)-------|
|---------------|---------------|---------||-||----------------------|
|
| Gtr III
|                                                      ~~~~~~~~
|---------------|---------------|---------||-||----------------------|
|---------------|---------------|--------o||-||o---5-7-7b9-(7)-7-----|
|---------------|---------------|---------||-||--4-------------------|
|---------------|---------------|---------||-||----------------------|
|---------------|---------------|--------o||-||o---------------------|
|---------------|---------------|---------||-||----------------------|
|                
| Gtr IV
|                                                      ~~~~~~~~
|---------------|---------------|---------||-||----------------------|
|---------------|---------------|--------o||-||o---------------------|
|---------------|---------------|---------||-||--------9---(9)-------|
|---------------|---------------|---------||-||--6-7-9---------9-----|
|---------------|---------------|--------o||-||o---------------------|
|---------------|---------------|---------||-||----------------------|


                                            PM--------|
|-----------------|-----------------------|-------------|
|-----------------|-----------------------|-------------|
|-----------------|-----------------------|-------------|
|-4-5-5-4----7--4-|-2-3--5------3---2h3p2-|-0-2-2-0-2-0-|
|-5-----5---(5)-5-|-3-------3--(3)--------|-2-2-2-2-2-2-|
|-----------------|-----------------------|-------------|
|
|                                           PM--------|
|-----------------|-----------------------|-------------|
|-----------------|-----------------------|-------------|
|-2-----2---(2)-2-|-0-------0--(0)--------|-------------|
|-4-----4---(4)-4-|-2-------2--(2)--------|-0-2-2-0-2-0-|
|-5-----5---(5)-5-|-3-------3--(3)--------|-2-2-2-2-2-2-|
|-----------------|-----------------------|-------------|
|
|            ~~~            ~~~~~~~
|-----------------|-----------------------|-------------|
|-----7-7h8--7----|-----------------------|-------------|
|---7-------------|---5--7--9--(9)--7-----|-------------|
|-7---------------|-5---------------------|-------------|
|-----------------|-----------------------|-------------|
|-----------------|-----------------------|-------------|
|
|
|-----------------|-----------------------|-------------|
|-----------------|-----------------------|-------------|
|-----7-7h9--7----|-----------------------|-------------|
|---7-------------|--------10-(10)--------|-------------|
|-9---------------|-7-8-10---------10-----|-------------|
|-----------------|-----------------------|-------------|


  PM------|
|-------------|-------------||---------------------|-----------------|
|-------------|------------o||---------------------|-----------------|
|-----------2-|-3--3---3----||---------------------|-----------------|
|-0-2-2-0-2---|-3--3---3----||-6-7-9------7--6h7p6-|-4-5-5-4----7--4-|
|-1-1-1-1-1---|-1--1---1---o||-7-----7-------------|-5-----5-------5-|
|-------------|-------------||-0-------------------|-----------------|
|
| PM------|
|-------------|-------------||---------------------|-----------------|
|-------------|------------o||---------------------|-----------------|
|-----------2-|-------------||-4-----4---(4)-------|-2-----2---(2)-2-|
|-0-2-2-0-2---|-3-----(3)---||-6-----6---(6)-------|-4-----4---(4)-4-|
|-1-1-1-1-1---|-1-----(1)--o||-7-----7---(7)-------|-5-----5---(5)-5-|
|-------------|-------------||---------------------|-----------------|
|
|                                    ~~~~~~~~                   ~~~
|-------------|-------------||---------------------|-----------------|
|-------------|------------o||---5-7-7b9-(7)-7-----|-----7-7h8--7----|
|-------------|-------------||-4-------------------|---7-------------|
|-------------|-------------||---------------------|-7---------------|
|-------------|------------o||---------------------|-----------------|
|-------------|-------------||---------------------|-----------------|
|
|                                    ~~~~~~~~                   ~~~
|-------------|-------------||---------------------|-----------------|
|-------------|------------o||---------------------|-----------------|
|-------------|-------------||-------9---(9)-------|-----7-7h9--7----|
|-------------|-------------||-6-7-9---------9-----|---7-------------|
|-------------|------------o||---------------------|-9---------------|
|-------------|-------------||---------------------|-----------------|


                          PM--------------------|
|-----------------------|-------------|-------------|----------|
|-----------------------|-------------|-------------|----------|
|-----------------------|-------------|-----------2-|-3--3--3--|
|-2-3--5------3---2h3p2-|-0-2-2-0-2-0-|-0-2-2-0-2---|-3--3--3--|
|-3-------3-------------|-2-2-2-2-2-2-|-1-1-1-1-1---|-1--1--1--|
|-----------------------|-------------|-------------|----------|
|
|                         PM--------------------|
|-----------------------|-------------|-------------|----------|
|-----------------------|-------------|-------------|----------|
|-0-------0--(0)--------|-------------|-----------2-|----------|
|-2-------2--(2)--------|-0-2-2-0-2-0-|-0-2-2-0-2---|-3--------|
|-3-------3--(3)--------|-2-2-2-2-2-2-|-1-1-1-1-1---|-1--------|
|-----------------------|-------------|-------------|----------|
|
|         ~~~~~~~
|-----------------------|-------------|-------------|----------|
|-----------------------|-------------|-------------|----------|
|---5--7--9--(9)--7-----|-------------|-------------|----------|
|-5---------------------|-------------|-------------|----------|
|-----------------------|-------------|-------------|----------|
|-----------------------|-------------|-------------|----------|
|
|
|-----------------------|-------------|-------------|----------|
|-----------------------|-------------|-------------|----------|
|-----------------------|-------------|-------------|----------|
|--------10-(10)--------|-------------|-------------|----------|
|-7-8-10---------10-----|-------------|-------------|----------|
|-----------------------|-------------|-------------|----------|


  Gtrs I, II
   PM|  ~~ PM         PM----------------| ~
|-------------------|---------------|----------------|
|-------------------|---------------|----------------|
|-------------------|---------------|----------------|
|--6-7--9----6h=7p6-|-4-5-7-7-4-7-4-|-2-3-5--3-2h3p2-|
|--7---11--7-7------|-5-5-5-5-5-5-5-|-3-3-7--3-3-----|
|--0-0--0--0--------|---------------|----------------|
|
| Gtr III
|       ~~                                ~
|-------------------|-----------5---|----------------|
|-------9----9h10p9-|-----x-7---7-7-|-----5----5h6p5-|
|----9--------------|---7-----7---7-|---5----5-------|
|--9----------------|-7-------------|-5--------------|
|-------------------|---------------|----------------|
|-------------------|---------------|----------------|
|
| Gtr IV
|                                         ~
|-------------------|---------------|----------------|
|-------------------|---------------|----------------|
|-------9----9-11-9-|-----x-7---7---|-----5----5h7p5-|
|----9--------------|---7-----7---7-|---5----5-------|
|-11----------------|-9-------------|-7--------------|
|-------------------|---------------|----------------|


                                       4/4
|---------------------|---------------|----------||
|---------------------|---------------|----------||
|-4-4-x-4---4---4-4---|-3-3-x-3-3-3-3-|-3--------||
|-0-2-x-2---2---2-2---|-0-2-x-2-2-2-2-|-3--------||
|-2-2-x-2---2---2-2---|-1-1-x-1-1-1-1-|-1--------||
|---------------------|---------------|----------||
|
|---------------------|---------------|----------||
|---5-------5-----5---|-3-------3---1-|-3--------||
|-4-------------4-----|---3-------3---|-3--------||
|---------------------|---------------|----------||
|---------------------|---------------|----------||
|---------------------|---------------|----------||
|
|---------------------|---------------|----------||
|---------------------|---------------|----------||
|---------------------|-------------2-|----------||
|-0-2-----0h2-0h2-0h2-|-0-2-----2-2---|-3--------||
|---------------------|---------------|----------||
|---------------------|---------------|----------||


  Moderate Rock Q=160          Faster Q=168
                               PM------------|
|--------------|-------------|-----------------|
|--------------|-------------|-----------------|
|--------------|-------------|-3-2-----2-------|
|--8-7---8-7-6-|---8-7-6-6---|-3-2-5-3-2-5-3-2-|
|--8-7---8-7-6-|---8-7-6-6---|-----5-3---5-3-2-|
|--6-5---6-5-4-|---6-5-4-4---|-----------------|
|
|--------------|-------------|-----------------|
|--------------|-------------|-----------------|
|--------------|-------------|---------2-------|
|--------------|-------------|-3-------2-------|
|--------------|-------------|-1-------0-------|
|--------------|-------------|-----------------|


  PM---------|                    PM------------|
|----------------|--------------|-----------------|
|----------------|--------------|-----------------|
|----------------|--------------|-----------------|
|-5-3-2----3-2---|--3--2--------|-2---------------|
|-5-3-2-5--3-2---|--3--2--5--3--|-2-5-3-2-5-3-2-0-|
|-------5--------|--------5--3--|---5-3-2-5-3-2-0-|
|
|----------------|--------------|-----------------|
|----------------|--------------|-----------------|
|----------------|--------------|-----------------|
|-5-------10-9---|-10--9--7--5--|-2-------7-------|
|-5--------8-7---|--8--7--5--3--|-2-------5-------|
|-3--------------|--------------|-0---------------|


|----------|------------|------------|------------|--------|
|----------|------------|------------|------------|--------|
|----------|------------|------------|------------|--------|
|-2--------|-(2)--------|-(2)--------|-(2)--------|-(2)----|
|-2--------|-(2)--------|-(2)--------|-(2)--------|-(2)----|
|-0--------|-(0)--------|-(0)--------|-(0)--------|-(0)----|


 2/4      4/4                                    2/4      4/4
|--------|------------|------------|------------|--------|--------||
|--------|------------|------------|------------|--------|--------||
|--------|------------|------------|------------|--------|--------||
|-(2)----|-(2)--------|-(2)--------|-(2)--------|-(2)----|-(2)----||
|-(2)----|-(2)--------|-(2)--------|-(2)--------|-(2)----|-(2)----||
|-(0)----|-(0)--------|-(0)--------|-(0)--------|-(0)----|-(0)----||


                                   2/4      4/4
    PM|    PM|      PM      ~       PM|      PM      ~
                                                             4x
||----------------|---------------|--------|-----------------||
||o---------------|---------------|--------|----------------o||
||----------------|---------------|--------|-----------------||
||--8-8-7--8-8-7--|---------------|-8-8-7--|-----------------||
||o-8-8-7--8-8-7--|---/7--7-5-----|-8-8-7--|---/7--7-5------o||
||--6-6-5--6-6-5--|-0----------7--|-6-6-5--|-0----------7----||


  PM|    PM|
|---------------||------------------------------|
|---------------||------------------------------|
|---------------||------------------------------|
|-8-8-7--8-8-7--||-2----------------------------|
|-8-8-7--8-8-7--||-2----------------------------|
|-6-6-5--6-6-5--||-0----------------------------|
|
| Gtr III
|---------------||------------------------------|
|---------------||---10b12--10b12-10b12r(10)-8--|
|---------------||------------------------------|
|---------------||------------------------------|
|---------------||------------------------------|
|---------------||------------------------------|
|
| Gtr IV
|---------------||------------------------------|
|---------------||------------------------------|
|---------------||---11b12--11b12-11b12r(11)-9--|
|---------------||------------------------------|
|---------------||------------------------------|
|---------------||------------------------------|


 2/4         4/4
|-----------|------------------------------|
|-----------|------------------------------|
|-----------|-2----------------------------|
|-(2)-------|-2----------------------------|
|-(2)-------|-0----------------------------|
|-(0)-------|------------------------------|
|
|-----------|------------------------------|
|-----------|---10b12--10b12-10b12r(10)-8--|
|-11--11-9--|------------------------------|
|-----------|------------------------------|
|-----------|------------------------------|
|-----------|------------------------------|
|
|-----------|------------------------------|
|-----------|------------------------------|
|-----------|---11b12--11b12-11b12r(11)-9--|
|-10--10-9--|------------------------------|
|-----------|------------------------------|
|-----------|------------------------------|


|-------------------|------------------------------|
|-------------------|------------------------------|
|-(2)---------------|------------------------------|
|-(2)---------------|-2----------------------------|
|-(0)---------------|-2----------------------------|
|-------------------|-0----------------------------|
|
|-------------------|------------------------------|
|--7---7-----7-8----|---10b12--10b12-10b12r(10)-8--|
|--------7-------9--|------------------------------|
|-------------------|------------------------------|
|-------------------|------------------------------|
|-------------------|------------------------------|
|
|-------------------|------------------------------|
|-------------------|------------------------------|
|--------------7----|---11b12--11b12-11b12r(11)-9--|
|-10--10-7--10---9--|------------------------------|
|-------------------|------------------------------|
|-------------------|------------------------------|


 2/4         4/4
|-----------|------------------------------|
|-----------|------------------------------|
|-----------|-2----------------------------|
|-(2)-------|-2----------------------------|
|-(2)-------|-0----------------------------|
|-(0)-------|------------------------------|
|
|-----------|------------------------------|
|-----------|---10b12--10b12-10b12r(10)-8--|
|-11--11-9--|------------------------------|
|-----------|------------------------------|
|-----------|------------------------------|
|-----------|------------------------------|
|
|-----------|------------------------------|
|-----------|------------------------------|
|-----------|---11b12--11b12-11b12r(11)-9--|
|-10--10-9--|------------------------------|
|-----------|------------------------------|
|-----------|------------------------------|


                                       2/4      4/4
                        PM      ~       PM|      PM      ~
|--------------------||---------------|--------|---------------|
|--------------------||---------------|--------|---------------|
|-(2)----------------||---------------|--------|---------------|
|-(2)--------3--3-2--||---------------|-8-8-7--|---------------|
|-(0)--------3--3-2--||---/7--7-5-----|-8-8-7--|---/7--7-5-----|
|------------1--1-0--||-0----------7--|-6-6-5--|-0----------7--|
|
|--------------------||---------------|--------|---------------|
|--7---7-------------||---------------|--------|---------------|
|--------7--10-10-9--||---------------|--------|---------------|
|--------------------||---------------|--------|---------------|
|--------------------||---------------|--------|---------------|
|--------------------||---------------|--------|---------------|
|
|--------------------||---------------|--------|---------------|
|--------------------||---------------|--------|---------------|
|--------------------||---------------|--------|---------------|
|-10--10-9--10-10-9--||---------------|--------|---------------|
|--------------------||---------------|--------|---------------|
|--------------------||---------------|--------|---------------|


                                 2/4
  PM|    PM|      PM      ~       PM|
|---------------|---------------|--------|
|---------------|---------------|--------|
|---------------|---------------|--------|
|-8-8-7--8-8-7--|---------------|-8-8-7--|
|-8-8-7--8-8-7--|---/7--7-5-----|-8-8-7--|
|-6-6-5--6-6-5--|-0----------7--|-6-6-5--|


 4/4
  PM      ~       PM|    PM|        PM
|---------------|----------------||---------------|
|---------------|----------------||---------------|
|---------------|----------------||---------------|
|---------------|-8-8-7----------||---2--x-2--2---|
|---/7--7-5-----|-8-8-7--5-5-4---||---2--x-2--2---|
|-0----------7--|-6-6-5--3-3-2p0-||-0-0--x-0--0---|


 2/4      4/4
  PM|      PM              PM|    PM|
|--------|---------------|---------------|
|--------|---------------|---------------|
|--------|---------------|---------------|
|-----3--|---2--x-2--2/--|-8-8-7--8-8-7--|
|-----3--|---2--x-2--2/--|-8-8-7--8-8-7--|
|-0-0-1--|-0-0--x-0--0/--|-6-6-5--6-6-5--|


                2/4      4/4
  PM             PM|      PM              PM|    PM|
|--------------|--------|---------------|---------------||
|--------------|--------|---------------|---------------||
|--------------|--------|---------------|---------------||
|---2--x-2--2--|-----3--|---2--x-2--2/--|-8-8-7--8-8-8--||
|---2--x-2--2--|-----3--|---2--x-2--2/--|-8-8-7--8-8-8--||
|-0-0--x-0--0--|-0-0-1--|-0-0--x-0--0/--|-6-6-5--6-6-6--||


   1st Verse
                  2/4      4/4
    PM             PM|      PM              PM|    PM|
||---------------|--------|---------------|----------------|
||o--------------|--------|---------------|----------------|
||---------------|--------|---------------|----------------|
||----2--x-2--2--|-----3--|---2--x-2--2/--|-8-8-7--8-8-7---|
||o---2--x-2--2--|-----3--|---2--x-2--2/--|-8-8-7--8-8-7---|
||--0-0--x-0--0--|-0-0-1--|-0-0--x-0--0/--|-6-6-5--6-6-5---|


                2/4      4/4
  PM             PM|      PM              PM|    PM|
|--------------|--------|---------------|----------------||
|--------------|--------|---------------|---------------o||
|--------------|--------|---------------|----------------||
|---2--x-2--2--|-----3--|---2--x-2--2/--|-8-8-7--8-8-8---||
|---2--x-2--2--|-----3--|---2--x-2--2/--|-8-8-7--8-8-8--o||
|-0-0--x-0--0--|-0-0-1--|-0-0--x-0--0/--|-6-6-5--6-6-6---||


                     Pre-Chorus
  PM------------|        PM--------|
|-----------------||-----------------|----------------------|
|-----------------||o----------------|----------------------|
|-----------------||-----------------|----------------------|
|-----------------||--4--------------|-5s4-2-4s5-(5)--4s5---|
|-7-7-7-7-7-5-5-5-||o-4--4-4-4-4-4-4-|-5s4-2-4s5-(5)--4s5---|
|-0-0-0-0-0-3-3-3-||--2--2-2-2-2-2-2-|-3s2-0-2s3-(3)--2s3---|


     PM--------|                            PM--------|
|----------------|---------------------|-----------------|
|----------------|---------------------|-----------------|
|----------------|---------------------|-----------------|
|-4--------------|-5s4-2-4s5-(5)--4s5--|-4---------------|
|-4--4-4-4-4-4-4-|-5s4-2-4s5-(5)--4s5--|-4--4-4-4-4-4-4--|
|-2--2-2-2-2-2-2-|-3s2-0-2s3-(3)--2s3--|-2--2-2-2-2-2-2--|


                           PM--------|
|---------------------|----------------|---------------------------||
|---------------------|----------------|--------------------------o||
|---------------------|----------------|-0h5h7---------------------||
|-5s4-2-4s5-(5)--4s5--|-4--------------|-------0h5h7---------------||
|-5s4-2-4s5-(5)--4s5--|-4--4-4-4-4-4-4-|-------------0h5h7-0h2h3--o||
|-3s2-0-2s3-(3)--2s3--|-2--2-2-2-2-2-2-|---------------------------||


                               PM--------|
|-------------------------|----------------|-----------------||
|-------------------------|----------------|-----------------||
|-0h5h7-------------------|----------------|-----------------||
|-------0h5h7-------------|-2--------------|-3-2-0-3-(3)--3--||
|-------------0h5h7-0h2h3-|-2--2-2-2-2-2-2-|-3-2-0-3-(3)--3--||
|-------------------------|-0--0-0-0-0-0-0-|-----------------||


 Chorus
                                           PM--------|
|----------|----------|---------------|----------------|
|----------|----------|---------------|----------------|
|-2--------|-4--------|-5----(5)------|----------------|
|-2--------|-4--------|-5----(5)---3--|-2--------------|
|-0--------|-2--------|-3----(3)p0-3--|-2--2-2-2-2-2-2-|
|----------|----------|------------1--|-0--0-0-0-0-0-0-|


|-----------------|----------|----------|------|
|-----------------|----------|----------|------|
|-----------------|-2--------|-4--------|------|
|-3-2-0-3-(3)--3--|-2--------|-4--------|-5----|
|-3-2-0-3-(3)--3--|-0--------|-2--------|-5----|
|-----------------|----------|----------|-3----|


                          PM|    PM|       PM      ~
|----------|------------|---------------||---------------|
|----------|------------|---------------||---------------|
|-5--------|------------|---------------||---------------|
|-5--------|-3------3/--|-8-8-7--8-8-7--||---------------|
|-3--------|-3------3/--|-8-8-7--8-8-7--||---/7--7-5-----|
|----------|-1------1/--|-6-6-5--6-6-5--||-0----------7--|


 2/4      4/4
  PM|      PM      ~       PM|    PM|      PM      ~
|--------|---------------|---------------|---------------|
|--------|---------------|---------------|---------------|
|--------|---------------|---------------|---------------|
|-8-8-7--|---------------|-8-8-7--8-8-7--|---------------|
|-8-8-7--|---/7--7-5-----|-8-8-7--8-8-7--|---/7--7-5-----|
|-6-6-5--|-0----------7--|-6-6-5--6-6-5--|-0----------7--|


 2/4      4/4
  PM|      PM      ~       PM|    PM|        PM
|--------|---------------|----------------||--------------|
|--------|---------------|----------------||--------------|
|--------|---------------|----------------||--------------|
|-8-8-7--|---------------|-8-8-7----------||---2--x-2--2--|
|-8-8-7--|---/7--7-5-----|-8-8-7--5-5-4---||---2--x-2--2--|
|-6-6-5--|-0----------7--|-6-6-5--3-3-2p0-||-0-0--x-0--0--|


 2/4      4/4
  PM|      PM              PM|    PM|
|--------|---------------|---------------|
|--------|---------------|---------------|
|--------|---------------|---------------|
|-----3--|---2--x-2--2/--|-8-8-7--8-8-7--|
|-----3--|---2--x-2--2/--|-8-8-7--8-8-7--|
|-0-0-1--|-0-0--x-0--0/--|-6-6-5--6-6-5--|


                2/4      4/4
  PM             PM|      PM              PM|    PM|
|--------------|--------|---------------|---------------||
|--------------|--------|---------------|---------------||
|--------------|--------|---------------|---------------||
|---2--x-2--2--|-----3--|---2--x-2--2/--|-8-8-7--8-8-8--||
|---2--x-2--2--|-----3--|---2--x-2--2/--|-8-8-7--8-8-8--||
|-0-0--x-0--0--|-0-0-1--|-0-0--x-0--0/--|-6-6-5--6-6-6--||


   2nd Verse
                  2/4      4/4
    PM             PM|      PM              PM|    PM|
||---------------|--------|---------------|----------------|
||o--------------|--------|---------------|----------------|
||---------------|--------|---------------|----------------|
||----2--x-2--2--|-----3--|---2--x-2--2/--|-8-8-7--8-8-7---|
||o---2--x-2--2--|-----3--|---2--x-2--2/--|-8-8-7--8-8-7---|
||--0-0--x-0--0--|-0-0-1--|-0-0--x-0--0/--|-6-6-5--6-6-5---|


                2/4      4/4
  PM             PM|      PM              PM|    PM|
|--------------|--------|---------------|----------------||
|--------------|--------|---------------|---------------o||
|--------------|--------|---------------|----------------||
|---2--x-2--2--|-----3--|---2--x-2--2/--|-8-8-7--8-8-7---||
|---2--x-2--2--|-----3--|---2--x-2--2/--|-8-8-7--8-8-7--o||
|-0-0--x-0--0--|-0-0-1--|-0-0--x-0--0/--|-6-6-5--6-6-5---||


                     Pre-Chorus
  PM------------|        PM--------|
|-----------------||-----------------|----------------------|
|-----------------||o----------------|----------------------|
|-----------------||-----------------|----------------------|
|-----------------||--4--------------|-5s4-2-4s5-(5)--4s5---|
|-7-7-7-7-7-5-5-5-||o-4--4-4-4-4-4-4-|-5s4-2-4s5-(5)--4s5---|
|-0-0-0-0-0-3-3-3-||--2--2-2-2-2-2-2-|-3s2-0-2s3-(3)--2s3---|


     PM--------|                            PM--------|
|----------------|---------------------|-----------------|
|----------------|---------------------|-----------------|
|----------------|---------------------|-----------------|
|-4--------------|-5s4-2-4s5-(5)--4s5--|-4---------------|
|-4--4-4-4-4-4-4-|-5s4-2-4s5-(5)--4s5--|-4--4-4-4-4-4-4--|
|-2--2-2-2-2-2-2-|-3s2-0-2s3-(3)--2s3--|-2--2-2-2-2-2-2--|


                           PM--------|
|---------------------|----------------|---------------------------||
|---------------------|----------------|--------------------------o||
|---------------------|----------------|-0h5h7---------------------||
|-5s4-2-4s5-(5)--4s5--|-4--------------|-------0h5h7---------------||
|-5s4-2-4s5-(5)--4s5--|-4--4-4-4-4-4-4-|-------------0h5h7-0h2h3--o||
|-3s2-0-2s3-(3)--2s3--|-2--2-2-2-2-2-2-|---------------------------||


                               PM--------|
|-------------------------|----------------|-----------------||
|-------------------------|----------------|-----------------||
|-0h5h7-------------------|----------------|-----------------||
|-------0h5h7-------------|-2--------------|-3-2-0-3-(3)--3--||
|-------------0h5h7-0h2h3-|-2--2-2-2-2-2-2-|-3-2-0-3-(3)--3--||
|-------------------------|-0--0-0-0-0-0-0-|-----------------||


 Chorus
                                           PM--------|
|----------|----------|---------------|----------------|
|----------|----------|---------------|----------------|
|-2--------|-4--------|-5----(5)------|----------------|
|-2--------|-4--------|-5----(5)---3--|-2--------------|
|-0--------|-2--------|-3----(3)p0-3--|-2--2-2-2-2-2-2-|
|----------|----------|------------1--|-0--0-0-0-0-0-0-|


|-----------------|----------|----------|------|
|-----------------|----------|----------|------|
|-----------------|-2--------|-4--------|------|
|-3-2-0-3-(3)--3--|-2--------|-4--------|-5----|
|-3-2-0-3-(3)--3--|-0--------|-2--------|-5----|
|-----------------|----------|----------|-3----|


                            PM|    PM|
|----------|------------||----------------|
|----------|------------||o---------------|
|-5--------|------------||----------------|
|-5--------|-3------3/--||--8-8-7--8-8-7--|
|-3--------|-3------3/--||o-8-8-7--8-8-7--|
|----------|-1------1/--||--6-6-5--6-6-5--|


                 2/4      4/4
  PM      ~       PM|      PM      ~
|---------------|--------|----------------||
|---------------|--------|---------------o||
|---------------|--------|----------------||
|---------------|-8-8-7--|----------------||
|---/7--7-5-----|-8-8-7--|---/7--7-5-----o||
|-0----------7--|-6-6-5--|-0----------7---||


                                          PM------------|
|------------|------------|-------------|-----------------|
|------------|------------|-------------|-----------------|
|------------|------------|-------------|-3-2-----2-------|
|-8----8-7---|---8-7-6----|-8-7-6-5-----|-3-2-5-3-2-5-3-2-|
|-8----8-7---|---8-7-6----|-8-7-6-5-----|-----5-3---5-3-2-|
|-6----6-5---|---6-5-4----|-6-5-4-3-----|-----------------|
|
| Gtr III
|------------|------------|-------------|-----------------|
|------------|------------|-------------|-----------------|
|------------|------------|-------------|---------2-------|
|------------|------------|-------------|-3-------2-------|
|------------|------------|-------------|-1-------0-------|
|------------|------------|-------------|-----------------|


  PM---------|                    PM------------|
|----------------|--------------|-----------------|------|
|----------------|--------------|-----------------|------|
|----------------|--------------|-----------------|-9----|
|-5-3-2----3-2---|--3--2--------|-2---------------|-9----|
|-5-3-2-5--3-2---|--3--2--5--3--|-2-5-3-2-5-3-2-0-|-7----|
|-------5--------|--------5--3--|---5-3-2-5-3-2-0-|-0----|
|
|----------------|--------------|-----------------|------|
|----------------|--------------|-----------------|------|
|----------------|--------------|-----------------|------|
|-5-------10-9---|-10--9--7--5--|-2-------7-------|-2----|
|-5--------8-7---|--8--7--5--3--|-2-------5-------|-2----|
|-3--------------|--------------|-0---------------|-0----|


                            Interlude I
                                 PM----------|
|-------------------------||-------------------|-----------------|
|-------------------------||-------------------|-----------------|
|-------------------0h5h7-||-------------------|-----------------|
|-------------0h5h7-------||--2----------------|-3-2-0-3-(3)--3--|
|-0h2h3-0h5h7-------------||--2--2-2--2--2-2-2-|-3-2-0-3-(3)--3--|
|-------------------------||--0--0-0--0--0-0-0-|-----------------|
|
|-------------------------||-------------------|-----------------|
|-------------------------||---------------8---|-7---------------|
|-------------------0h5h7-||-------9-(9)-------|-------9-(9)--7--|
|-------------0h5h7-------||-/9----------------|-----------------|
|-0h2h3-0h5h7-------------||-------------------|-----------------|
|-------------------------||-------------------|-----------------|


     PM------------|                             PM----------|
|--------------------|---------------------|-------------------|
|--------------------|---------------------|-------------------|
|--------------------|---------------------|-------------------|
|-2------------------|-3-2-0-3-(3)------3--|--2----------------|
|-2--2-2--2--2-2---2-|-3-2-0-3-(3)------3--|--2--2-2--2--2-2-2-|
|-0--0-0--0--0-0---0-|---------------------|--0--0-0--0--0-0-0-|
|
|      ~~~~~~
|--------------------|---------------------|-------------------|
|--------------------|---------------------|---------------8---|
|-5--4-4-(4)-4-5p4---|-4-------------------|-------9-(9)-------|
|------------------7-|---7-5-3--3h5p3s2----|-/9----------------|
|--------------------|---------------------|-------------------|
|--------------------|---------------------|-------------------|


                       PM------------|
|-----------------|--------------------|----------------------------|
|-----------------|--------------------|----------------------------|
|-----------------|--------------------|-0h5h==7--------------------|
|-3-2-0-3-(3)--3--|-2------------------|---------0h5h7--------------|
|-3-2-0-3-(3)--3--|-2--2-2--2--2-2---2-|---------------0h5h7-0h2h3--|
|-----------------|-0--0-0--0--0-0---0-|----------------------------|
|
|                        ~~~~~~
|-----------------|--------------------|----------------------------|
|-7---------------|--------------------|----------------------------|
|-------9-(9)--7--|-5--4-4-(4)-4-5p4---|----------------------------|
|-----------------|------------------7-|-2s==3----------------------|
|-----------------|--------------------|----------------------------|
|-----------------|--------------------|----------------------------|


      PM----------|
|-------------------|--------------------|
|-------------------|--------------------|
|-------------------|--------------------|
|--2----------------|-3-2-0-3-(3)-----3--|
|--2--2-2--2--2-2-2-|-3-2-0-3-(3)-----3--|
|--0--0-0--0--0-0-0-|--------------------|
|
|-------------------|--------------------|
|---------------8---|-7-----5h====7p5s3--|
|-------9-(9)-------|--------------------|
|-/9----------------|--------------------|
|-------------------|--------------------|
|-------------------|--------------------|


      PM------------|
|---------------------|----------------------|
|---------------------|----------------------|
|---------------------|----------------------|
|--2------------------|-3-2-0-3-(3)-----3----|
|--2--2-2--2--2---2-2-|-3-2-0-3-(3)-----3----|
|--0--0-0--0--0---0-0-|----------------------|
|
|---------------------|----------------------|
|---------------/10---|-8-----7h====8p7s5----|
|-------9-(9)---------|----------------------|
|-/9------------------|----------------------|
|---------------------|----------------------|
|---------------------|----------------------|


      PM------------|
|---------------------|--------------------------------------|
|---------------------|--------------------------------------|
|---------------------|--------------------------------------|
|--2------------------|--3----2----0----3---(3)--------3-----|
|--2--2-2--2--2---2-2-|--3----2----0----3---(3)--------3-----|
|--0--0-0--0--0---0-0-|--------------------------------------|
|
|---------------------|--------------------------------------|
|---------------/12---|-12p10p==8-12p10p==8-12p10p8s7-10p8p7-|
|-------9-(9)---------|--------------------------------------|
|-/9------------------|--------------------------------------|
|---------------------|--------------------------------------|
|---------------------|--------------------------------------|


          PM-------------------|
|-----------------------------------|
|-----------------------------------|
|-----------------------------------|
|--2--------------------------------|
|--2------2---2----2---2---2---2----|
|--0------0---0----0---0---0---0----|
|
|-----------------------------------|
|-----------------------------------|
|-11p9p7-11p9p==7-11p9p7s5-9p7p==5--|
|-----------------------------------|
|-----------------------------------|
|-----------------------------------|


                                                      PM|    PM|
|-------------------------|-------------------------|----------------||
|-------------------------|-------------------------|----------------||
|-0h5h7-------------------|-0h5h7-------------------|-5-5-4--5-5-4---||
|-------0h5h7-------------|-------0h5h7-------------|-5-5-4--5-5-4---||
|-------------0h5h7-0h2h3-|-------------0h5h7-0h2h3-|-3-3-2--3-3-2---||
|-------------------------|-------------------------|----------------||


 Guitar Solo
                                   2/4
   PM          PM                     PM-|
|---------------------------------|-------------------|
|---------------------------------|-------------------|
|---------------------------------|-------------------|
|---------4--------4------4-------|-------4--4--------|
|---------4--------4------4-------|-------4--4--------|
|--0------2----0---2------2-------|---0---2--2--------|
|
| Gtr III
|---------------------------------|------14----17b19==|
|-17----(17)--14-(14)-------------|---------14--------|
|-16b18-(16)--14-(14)----14-16b18-|-(16)--------------|
|---------------------16----------|-------------------|
|---------------------------------|-------------------|
|---------------------------------|-------------------|


 4/4
    PM        PM
|------------------------------------|
|------------------------------------|
|------------------------------------|
|-------4--------4-----------4-------|
|-------4--------4-----------4-------|
|---0---2-----0--2-----------2--0----|
|
|-(17)r17-17-14-17p16-17p14----19p14-|
|---------------------------17-------|
|------------------------------------|
|------------------------------------|
|------------------------------------|
|------------------------------------|


 2/4
   PM---|
|-------------------------|
|-------------------------|
|-------------------------|
|--------------5----------|
|--------------5----------|
|--0-----0-----3----------|
|
|-21p14-21p14----19p14-17-|
|-------------17----------|
|-------------------------|
|-------------------------|
|-------------------------|
|-------------------------|


 4/4                              2/4
   PM             PM                PM---|
|--------------------------------|-----------------------|
|--------------------------------|-----------------------|
|--------------------------------|-----------------------|
|--------4-----------4------4----|---------4---4---------|
|--------4-----------4------4----|---------4---4---------|
|--0-----2--------0--2------2----|--0------2---2---------|
|
|                    ~~~~~
|-17p14-17p14----14-14-----------|-----------------------|
|-------------17----17b19-----14-|-16b17-(16)-16b17-(16)-|
|-----------------------------14-|-16b18-(16)-16b17-(16)-|
|--------------------------16----|-----------------------|
|--------------------------------|-----------------------|
|--------------------------------|-----------------------|


 4/4
   PM                  PM                     PM-|             PM-|
|-----------------------------------------|-------------------------------|
|-----------------------------------------|-------------------------------|
|-----------------------------------------|----------4----------------4---|
|---------------4---------4----------4----|---5---5--4---------5--5---4---|
|---------------4---------4----------4----|---3---3--2---------3--3---2---|
|--0------------2------0--2----------2----|-------------------------------|
|
|                                       ~~~~~~~~~       ~~~~~
|-----------------------------------------|-------------------------------|
|-16b17==(16)r(16)-14h16-14b14.5----16-14-|-(14)----14-17----(17)---(17)--|
|-16b18==(16)r(16)-14----14b14.5----16-14-|-(14)----14-16b18-(16)---(16)--|
|--------------------------------16-------|------16-----------------------|
|-----------------------------------------|-------------------------------|
|-----------------------------------------|-------------------------------|


   PM             PM
|----------------------------------------------------|
|----------------------------------------------------|
|----------------------------------------------------|
|--------4-----------------4-----------4-------------|
|--------4-----------------4-----------4-------------|
|--0-----2--------0--------2-----------2-------------|
|
|-------------------------------17p14----------------|
|-14----14-17p14-------14-17p14-------17-14-------14-|
|-16b18----------16b18----------------------16b18----|
|----------------------------------------------------|
|----------------------------------------------------|
|----------------------------------------------------|


 2/4              4/4
   PM---|           PM       PM
|----------------|------------------------------------|
|----------------|------------------------------------|
|----------------|------------------------------------|
|--------4--4----|-----4--------4-------------4-------|
|--------4--4----|-----4--------4-------------4-------|
|--0-----2--2----|--0--2-----0--2-------------2--0----|
|
|----------------|------------------------------------|
|-17p14----------|-------14h17-17b19r(17)p14-17-17b19r|
|-------16-14----|-14-16------------------------------|
|-------------16-|------------------------------------|
|----------------|------------------------------------|
|----------------|------------------------------------|


 2/4
   PM---|
|-------------------------|
|-------------------------|
|-------------------------|
|-----------5-------------|
|-----------5-------------|
|--0-----0--3-------------|
|
|-------------------------|
|-17p14h17-17b19r(17)-14h=|
|-------------------------|
|-------------------------|
|-------------------------|
|-------------------------|


 4/4                                     2/4
   PM                  PM                   PM-|
|---------------------------------------|--------------------|
|---------------------------------------|--------------------|
|---------------------------------------|--------------------|
|-----4-------------------4-----4-------|------4--4----------|
|-----4-------------------4-----4-------|------4--4----------|
|--0--2----------------0--2-----2-------|---0--2--2----------|
|
|                                           ~~~~
|------------------------17b19----17b19-|-(17)---------------|
|-17-17b19==(17)r(17)p14----------------|--------------------|
|---------------------------------------|--------16p14h16b18-|
|---------------------------------------|--------------------|
|---------------------------------------|--------------------|
|---------------------------------------|--------------------|


 4/4
    PM           PM               PM|               PM-|
|------------------------------|----------------------------|
|------------------------------|----------------------------|
|------------------------------|----------4--------------4--|
|------4------------4-----4----|--5---5---4---------5--5-4--|
|------4------------4-----4----|--3---3---2---------3--3-2--|
|---0--2---------0--2-----2----|----------------------------|
|
|------------------------------|----------------------------|
|------------------------------|------------17b19-(17)------|
|-(16)---16b18==16-16-16-16-16-|-16r(16)p14-----------------|
|------------------------------|----------------------------|
|------------------------------|----------------------------|
|------------------------------|----------------------------|


   PM---------------------------------------------
|-------------------------------------------------|
|-------------------------------------------------|
|-------------------------------------------------|
|-------------------------------------------------|
|--7------7----7------7----7------5----5----------|
|---------------------------------------------3---|
|
|-22p19p0-0-0-21p17p0-0-0-18p15p0-0-0-17p14p0-0-0-|
|-------------------------------------------------|
|-------------------------------------------------|
|-------------------------------------------------|
|-------------------------------------------------|
|-------------------------------------------------|


 ---------------------------------------------|
|-------------------------------------------------|
|-------------------------------------------------|
|-------------------------------------------------|
|-------------------------------------------------|
|--7------7----7------7----7------5----5----------|
|---------------------------------------------3---|
|
|-22p19p0-0-0-21p17p0-0-0-19p15p0-0-0-17p14p0-0-0-|
|-------------------------------------------------|
|-------------------------------------------------|
|-------------------------------------------------|
|-------------------------------------------------|
|-------------------------------------------------|


   PM-------------------------------------
|-----------------------------------------|
|-----------------------------------------|
|-----------------------------------------|
|-----------------------------------------|
|--7----5----5---------7----3----3--------|
|-----------------0-------------------1---|
|
|-19p0-17p0-15p0-14p0-17p0-15p0-14p0-12p0-|
|-----------------------------------------|
|-----------------------------------------|
|-----------------------------------------|
|-----------------------------------------|
|-----------------------------------------|


 ------------------------------------------|
|---------------------------------------------------|
|---------------------------------------------------|
|---------------------------------------------------|
|---------------------------------------------------|
|--7----3----3--------------------------------------|
|-----------------1----x------x------x------3-------|
|
|-15p0-14p0-12p0-10p0-10p9p7--------10p9p7----------|
|----------------------------10p8p7--------10p8p0---|
|---------------------------------------------------|
|---------------------------------------------------|
|---------------------------------------------------|
|---------------------------------------------------|


               Interlude II
                                 2/4      4/4
                PM    PM|         PM|            PM|
|------------||-----------------|--------|-------------------|
|------------||-----------------|--------|-------------------|
|------------||-----------------|--------|-------------------|
|------------||---2-2-----2--2--|-----3--|---2-2-----2--2/---|
|------------||---2-2-----2--2--|-----3--|---2-2-----2--2/---|
|--x---------||-0-0-0-0-0-0--0--|-0-0-1--|-0-0-0-0-0-0--0/---|
|
|  \3
|------------||-----------------|--------|-------------------|
|-<5>--------||-----------------|--------|-------------------|
|-<5>--------||-----------------|--------|-------------------|
|------------||-----------------|--------|-------------------|
|------------||-----------------|--------|-------------------|
|------------||-----------------|--------|-------------------|


                                   2/4
  PM|    PM|                        PM|
|---------------|-----------------|--------|
|---------------|-----------------|--------|
|---------------|-----------------|--------|
|-----7------7--|---2-2-----2--2--|-----3--|
|-8-8-7--8-8-7--|---2-2-----2--2--|-----3--|
|-6-6-5--6-6-5--|-0-0-0-0-0-0--0--|-0-0-1--|


 4/4
        PM|
|------------------|-----------------|
|------------------|-----------------|
|------------------|-----------------|
|---2-2-----2--2/--|-----7------8----|
|---2-2-----2--2/--|-8-8-7--8-8-8----|
|-0-0-0-0-0-0--0/--|-6-6-5--6-6-6----|


                     2/4      4/4
    PM    PM|         PM|            PM|          PM|    PM|
||------------------|--------|------------------|----------------||
||o-----------------|--------|------------------|---------------o||
||------------------|--------|------------------|----------------||
||----2-2-----2--2--|-----3--|---2-2-----2--2/--|-----7------7---||
||o---2-2-----2--2--|-----3--|---2-2-----2--2/--|-8-8-7--8-8-7--o||
||--0-0-0-0-0-0--0--|-0-0-1--|-0-0-0-0-0-0--0/--|-6-6-5--6-6-5---||


  H.=H
                                                 3/4
  PM|    PM|                                        PM------|
|---------------|---------------|---------------|--------------||
|---------------|---------------|---------------|--------------||
|---------------|---------------|---------------|--------------||
|-----5------5--|-----4------4--|-----4------4--|-3------------||
|-7-7-5--7-7-5--|-5-5-4--5-5-4--|-5-5-4--5-5-4--|-3-3-3-3-3-3--||
|-5-5-3--5-5-3--|-3-3-2--3-3-2--|-3-3-2--3-3-2--|-1-1-1-1-1-1--||


  Moderately Slow Q=100
  Gtr I
                   PM--------|                    PM--------|
|----------------|-------------|----------------|--------------|
|----------------|-------------|----------------|--------------|
|----------------|-------------|----------------|--------------|
|-6-7-9--7-6h7p6-|-4-5-5-4-7-4-|-2-3-5--3-2h3p2-|-0-2-2-0-2-0--|
|----------------|-------------|----------------|--------------|
|----------------|-------------|----------------|--------------|
|
| Gtr II
| PM|    PM        PM--------------|    PM------------------|
|----------------|-------------|----------------|--------------|
|----------------|-------------|----------------|--------------|
|-----9----------|-------------|-----5----------|--------------|
|-----9----------|-------------|-----5----------|--------------|
|-7-7-7--7-------|-5-5-5-5-5-5-|-3-3-3--3-------|-2-2-2-2-2-2--|
|-0-0-0--0-------|-------------|----------3-----|--------------|


  PM------|                    ~
|-------------|----------|----------------|-------------|
|-------------|----------|----------------|-------------|
|-----------2-|-3--------|----------------|-------------|
|-0-2-2-0-0---|-3--------|-6-7-9--7-6h7p6-|-4-5-5-4-7-4-|
|-------------|-1--------|----------------|-------------|
|-------------|------2/--|----------------|-------------|
|
| PM--------|              PM|    PM        PM--------|
|-------------|----------|----------------|-------------|
|-------------|----------|----------------|-------------|
|-------------|-3--------|-----9----------|-------------|
|-------------|-3--------|-----9----------|-------------|
|-1-1-1-1-1-1-|-1--------|-7-7-7--7-------|-5-5-5-5-5-5-|
|-------------|----------|-0-0-0--0-------|-------------|


      ~
|----------------|-------------|-------------|--------||
|----------------|-------------|-------------|--------||
|----------------|-------------|-----------2-|-3------||
|-2-3-5--3-2h3p2-|-0-2-2-0-2-0-|-0-2-2-0-0---|-3------||
|----------------|-------------|-------------|--------||
|----------------|-------------|-------------|--------||
|
| PM|    PM--------------------------------|
|----------------|-------------|-------------|--------||
|----------------|-------------|-------------|--------||
|-----5----------|-------------|-------------|-3------||
|-----5----------|-------------|-------------|-3------||
|-3-3-3--3-------|-2-2-2-2-2-2-|-1-1-1-1-1-1-|-1------||
|----------3-----|-------------|-------------|--------||


      ~                                   ~
|-------------------|---------------|-------------------|-------------|
|-------------------|---------------|-------------------|-------------|
|-------------------|---------------|-------------------|-------------|
|-6-7-9----7--6h7p6-|-4-5-5-4---7-4-|-2-3-5----3--2h3p2-|-0-2-2-0-2-0-|
|-------------------|---------------|-------------------|-------------|
|-------------------|---------------|-------------------|-------------|
|
| PM|      PM         PM----------------|      PM-------------------|
|-------------------|---------------|-------------------|-------------|
|-------------------|---------------|-------------------|-------------|
|-----9-------------|---------------|-----5-------------|-------------|
|-----9-------------|---------------|-----5-------------|-------------|
|-7-7-7----7--------|-5-5-5-5---5-5-|-3-3-3----3--------|-2-2-2-2-2-2-|
|-0-0-0----0--------|---------------|-------------3-----|-------------|
|
| Gtr III
|       ~~~~~~                  ~           ~~~~~~
|-------------------|---------------|-------------------|-------------|
|-----9-------------|---------------|-----5-------------|---5-5-5-5---|
|---9---9-(9)-------|---7-7-7h9-7---|---5---5-(5)-------|-----4---4---|
|-9-----------9-----|-7-------------|-5-----------5-----|-------------|
|-------------------|---------------|-------------------|-------------|
|-------------------|---------------|-------------------|-------------|


|---------------|--------||--------------------|-------------|
|---------------|--------||o-------------------|-------------|
|-------------2-|-3------||---9----------------|-7-----------|
|-0-2-2-0-0-----|-3------||---9----------------|-7-----------|
|---------------|--------||o--7----------------|-5-----------|
|---------------|--------||---0----------------|-------------|
|
| PM----------|
|---------------|--------||--------------------|-------------|
|---------------|--------||o-------------------|-------------|
|---------------|-3------||---9----------------|-7-----------|
|---------------|-3------||---9----------------|-7-----------|
|-1-1-1-1-1---1-|-1------||o--7----------------|-5-----------|
|---------------|--------||---0----------------|-------------|
|
|                            
|                 ~                                        ~~
|---------------|--------||--------------------|-------------|
|-3-----3-------|-6------||o----------9-(9)----|-----7-7h8-7-|
|---3-3---3-3h5-|-7------||------9-11-------11-|---7---------|
|---------------|--------||---9----------------|-7-----------|
|---------------|--------||o-------------------|-------------|
|---------------|--------||--------------------|-------------|
|
|                          Gtr IV
|
|---------------|--------||--------------------|-------------|
|---------------|--------||o-------------------|-------------|
|---------------|--------||-----------9-(9)----|-----7-7h9-7-|
|---------------|--------||---------9--------9-|---7---------|
|---------------|--------||o-11-12-------------|-9-----------|
|---------------|--------||--------------------|-------------|


  Gtrs I, II
|---------------------|---------------------|---------------|---------||
|---------------------|---------------------|---------------|--------o||
|-5-------------------|-4-------------------|---------------|---3-----||
|-5-------------------|-4-------------------|-2-------------|---3-----||
|-3-------------------|-2-------------------|-1-------------|---1----o||
|---------------------|---------------------|---------------|---------||
|
| Gtr III
|           ~~~~~~~
|---------------------|---------------------|---------------|---------||
|---------------------|---5---------------5-|---5-----------|--------o||
|---5--7-7s=9--(9)--7-|-4----4--------4-----|-3---3---3-3s5-|-5s7-----||
|-5-------------------|---------------------|---------------|---------||
|---------------------|---------------------|---------------|--------o||
|---------------------|---------------------|---------------|---------||
|
| Gtr IV
|           ~~~~~~~                                             ~
|---------------------|---------------------|---------------|---------||
|---------------------|---------------------|---------------|--------o||
|---------------------|---------------------|---------------|---------||
|----------10-(10)----|-0-2-(2)-0h2-0h2-0h2-|-0-2-2-0-2-7s8-|---------||
|-7-8-10-----------10-|---------------------|---------------|---8----o||
|---------------------|---------------------|---------------|---------||


     PM|   PM     PM|   PM     PM|   PM
|------------|------------|------------|
|------------|------------|------------|
|-9------9---|-7------7---|-5------5---|
|-9------9---|-7------7---|-5------5---|
|-7--x-x-7-x-|-5--x-x-5-x-|-3--x-x-3-x-|
|-7--x-x-7-x-|-5--x-x-5-x-|-3--x-x-3-x-|


     PM|   PM     PM|         PM|         PM|
|------------|-----------|-----------|-----------||
|------------|-----------|-----------|-----------||
|-4------4---|-3------3--|-3------3--|-3------3--||
|-4------4---|-3------3--|-3------3--|-3------3--||
|-2--x-x-2-x-|-1--x-x-1--|-1--x-x-1--|-1--x-x-1--||
|-2--x-x-2-x-|-1--x-x-1--|-1--x-x-1--|-1--x-x-1--||


  Faster Q=168
 4/4
|----------|------------|------------|------------|--------|
|----------|------------|------------|------------|--------|
|----------|------------|------------|------------|--------|
|-2--------|-(2)--------|-(2)--------|-(2)--------|-(2)----|
|-2--------|-(2)--------|-(2)--------|-(2)--------|-(2)----|
|-0--------|-(0)--------|-(0)--------|-(0)--------|-(0)----|


 2/4      4/4
                          PM|    PM|      PM      ~
|--------|------------||----------------|----------------|
|--------|------------||o---------------|----------------|
|--------|------------||----------------|----------------|
|-(2)----|-(2)--------||--8-8-7--8-8-7--|----------------|
|-(2)----|-(2)--------||o-8-8-7--8-8-7--|---/7--7-5------|
|-(0)----|-(0)--------||--6-6-5--6-6-5--|-0----------7---|


 2/4      4/4
  PM|      PM      ~         PM|    PM|
|--------|----------------||----------------||
|--------|---------------o||----------------||
|--------|----------------||----------------||
|-8-8-7--|----------------||-8-8-7----------||
|-8-8-7--|---/7--7-5-----o||-8-8-7--5-5-4---||
|-6-6-5--|-0----------7---||-6-6-5--3-3-2p0-||


   3rd Verse
                  2/4      4/4
    PM             PM|      PM              PM|    PM|
||---------------|--------|---------------|----------------|
||o--------------|--------|---------------|----------------|
||---------------|--------|---------------|----------------|
||----2--x-2--2--|-----3--|---2--x-2--2/--|-8-8-7--8-8-7---|
||o---2--x-2--2--|-----3--|---2--x-2--2/--|-8-8-7--8-8-7---|
||--0-0--x-0--0--|-0-0-1--|-0-0--x-0--0/--|-6-6-5--6-6-5---|


                2/4      4/4
  PM             PM|      PM              PM|    PM|
|--------------|--------|---------------|----------------||
|--------------|--------|---------------|---------------o||
|--------------|--------|---------------|----------------||
|---2--x-2--2--|-----3--|---2--x-2--2/--|-8-8-7--8-8-8---||
|---2--x-2--2--|-----3--|---2--x-2--2/--|-8-8-7--8-8-8--o||
|-0-0--x-0--0--|-0-0-1--|-0-0--x-0--0/--|-6-6-5--6-6-6---||


                                       Pre-Chorus
  PM------------|                          PM--------|
|-----------------|-----------------||-----------------|----------------------|
|-----------------|-----------------||o----------------|----------------------|
|-----------------|-----------------||-----------------|----------------------|
|-----------------|-----------------||--4--------------|-5s4-2-4s5-(5)--4s5---|
|-7-7-7-7-7-5-5---|---7-7-7-7-5-5-5-||o-4--4-4-4-4-4-4-|-5s4-2-4s5-(5)--4s5---|
|-0-0-0-0-0-----3-|-0-------------3-||--2--2-2-2-2-2-2-|-3s2-0-2s3-(3)--2s3---|


     PM--------|                            PM--------|
|----------------|---------------------|-----------------|
|----------------|---------------------|-----------------|
|----------------|---------------------|-----------------|
|-4--------------|-5s4-2-4s5-(5)--4s5--|-4---------------|
|-4--4-4-4-4-4-4-|-5s4-2-4s5-(5)--4s5--|-4--4-4-4-4-4-4--|
|-2--2-2-2-2-2-2-|-3s2-0-2s3-(3)--2s3--|-2--2-2-2-2-2-2--|


                           PM--------|
|---------------------|----------------|---------------------------||
|---------------------|----------------|--------------------------o||
|---------------------|----------------|-0h5h7---------------------||
|-5s4-2-4s5-(5)--4s5--|-4--------------|-------0h5h7---------------||
|-5s4-2-4s5-(5)--4s5--|-4--4-4-4-4-4-4-|-------------0h5h7-0h2h3--o||
|-3s2-0-2s3-(3)--2s3--|-2--2-2-2-2-2-2-|---------------------------||


                               PM--------|
|-------------------------|----------------|-----------------||
|-------------------------|----------------|-----------------||
|-0h5h7-------------------|----------------|-----------------||
|-------0h5h7-------------|-2--------------|-3-2-0-3-(3)--3--||
|-------------0h5h7-0h2h3-|-2--2-2-2-2-2-2-|-3-2-0-3-(3)--3--||
|-------------------------|-0--0-0-0-0-0-0-|-----------------||


 Chorus
                                           PM--------|
|----------|----------|---------------|----------------|
|----------|----------|---------------|----------------|
|-2--------|-4--------|-5----(5)------|----------------|
|-2--------|-4--------|-5----(5)---3--|-2--------------|
|-0--------|-2--------|-3----(3)p0-3--|-2--2-2-2-2-2-2-|
|----------|----------|------------1--|-0--0-0-0-0-0-0-|


|-----------------|----------|----------|------|
|-----------------|----------|----------|------|
|-----------------|-2--------|-4--------|------|
|-3-2-0-3-(3)--3--|-2--------|-4--------|-5----|
|-3-2-0-3-(3)--3--|-0--------|-2--------|-5----|
|-----------------|----------|----------|-3----|


                          PM|    PM|
|----------|------------|---------------||
|----------|------------|---------------||
|-5--------|------------|---------------||
|-5--------|-3------3/--|-8-8-7--8-8-7--||
|-3--------|-3------3/--|-8-8-7--8-8-7--||
|----------|-1------1/--|-6-6-5--6-6-5--||


                                2/4         4/4
|------------------------------|-----------|------------------------------|
|------------------------------|-----------|------------------------------|
|------------------------------|-----------|-2----------------------------|
|-2----------------------------|-(2)-------|-2----------------------------|
|-2----------------------------|-(2)-------|-0----------------------------|
|-0----------------------------|-(0)-------|------------------------------|
|
| Gtr III
|------------------------------|-----------|------------------------------|
|---10b12--10b12-10b12r(10)-8--|-----------|---10b12--10b12-10b12r(10)-8--|
|------------------------------|-11--11-9--|------------------------------|
|------------------------------|-----------|------------------------------|
|------------------------------|-----------|------------------------------|
|------------------------------|-----------|------------------------------|
|
| Gtr IV
|------------------------------|-----------|------------------------------|
|------------------------------|-----------|------------------------------|
|---11b12--11b12-11b12r(11)-9--|-----------|---11b12--11b12-11b12r(11)-9--|
|------------------------------|-10--10-9--|------------------------------|
|------------------------------|-----------|------------------------------|
|------------------------------|-----------|------------------------------|


                                                    2/4
|-------------------|------------------------------|-----------|
|-------------------|------------------------------|-----------|
|-(2)---------------|-x----------------------------|-----------|
|-(2)---------------|-x--2-----------(2)-----------|-(2)-------|
|-(0)---------------|-x--2-----------(2)-----------|-(2)-------|
|-------------------|----0-----------(0)-----------|-(0)-------|
|
|-------------------|------------------------------|-----------|
|--7---7-----7-8----|---10b12--10b12-10b12r(10)-8--|-----------|
|--------7-------9--|------------------------------|-11--11-9--|
|-------------------|------------------------------|-----------|
|-------------------|------------------------------|-----------|
|-------------------|------------------------------|-----------|
|
|-------------------|------------------------------|-----------|
|-------------------|------------------------------|-----------|
|--------------7----|---11b12--11b12-11b12r(11)-9--|-----------|
|-10--10-7--10---9--|------------------------------|-10--10-9--|
|-------------------|------------------------------|-----------|
|-------------------|------------------------------|-----------|


 4/4
|------------------------------|
|------------------------------|
|----2-----------(2)-----------|
|-x--2-----------(2)-----------|
|-x--0-----------(0)-----------|
|-x----------------------------|
|
|------------------------------|
|---10b12--10b12-10b12r(10)-8--|
|------------------------------|
|------------------------------|
|------------------------------|
|------------------------------|
|
|------------------------------|
|------------------------------|
|---11b12--11b12-11b12r(11)-9--|
|------------------------------|
|------------------------------|
|------------------------------|


|------------------|-------------------------------|
|------------------|-------------------------------|
|--2---------------|-x-----------------------------|
|--2---------------|-x--2-----------(2)------------|
|--0---------------|-x--2-----------(2)------------|
|------------------|----0-----------(0)------------|
|
|------------------|-------------------------------|
|--7--7-----7-8----|---10b12--10b12-10b12r(10)-8---|
|-------7-------9--|-------------------------------|
|------------------|-------------------------------|
|------------------|-------------------------------|
|------------------|-------------------------------|
|
|------------------|-------------------------------|
|------------------|-------------------------------|
|-------------7----|---11b12--11b12-11b12r(11)-9---|
|-10-10-7--10---9--|-------------------------------|
|------------------|-------------------------------|
|------------------|-------------------------------|


 2/4          4/4
|-----------||----------|------------|--------|
|-----------||----------|------------|--------|
|-----------||-2--------|--4---------|--------|
|-(2)-------||-2--------|--4---------|--5-----|
|-(2)-------||-0--------|--2---------|--5-----|
|-(0)-------||----------|------------|--3-----|
|
|-----------||----------|------------|--------|
|-----------||----------|------------|--------|
|-11--11-9--||-9--------|-(9)--------|-(9)----|
|-----------||----------|------------|--------|
|-----------||----------|------------|--------|
|-----------||----------|------------|--------|
|
|-----------||----------|------------|--------|
|-----------||----------|------------|--------|
|-----------||----------|------------|--------|
|-10--10-9--||-9--------|-(9)--------|-(9)----|
|-----------||----------|------------|--------|
|-----------||----------|------------|--------|


             Gtrs I, II, III
                          PM|    PM|
|----------|------------|---------------|
|----------|------------|---------------|
|-5--------|------------|---------------|
|-5--------|-3------3/--|-8-8-7--8-8-7--|
|-3--------|-3------3/--|-8-8-7--8-8-7--|
|----------|-1------1/--|-6-6-5--6-6-5--|


 Outro
                   2/4        4/4
|-----------------|----------|-----------------|-----------------|
|-----------------|----------|-----------------|-----------------|
|-----------------|----------|-2---------------|-(2)-------------|
|-2---------------|-(2)------|-2---------------|-(2)-------------|
|-2---------------|-(2)------|-0---------------|-(0)-------------|
|-0---------------|-(0)------|-----------------|-----------------|
|
| Gtr III
|           ~        PM-|                         PM----------|
|-----------------|----------|-----------------|-----------------|
|-----------------|----------|-----------------|-----------------|
|-----------------|----------|-----------------|-----------------|
|----/9---9-7--5--|----------|----/9---9-7--5--|------------5----|
|-----------------|--9--9-7--|-----------------|--9--7-5--7---7--|
|-----------------|----------|-----------------|-----------------|
|
| Gtr IV
|           ~        PM-|                         PM----------|
|-----------------|----------|-----------------|-----------------|
|-----------------|----------|-----------------|-----------------|
|-----------------|----------|-----------------|-----------------|
|-----------------|----------|-----------------|-----------------|
|---/10--10-9--7--|----------|---/10--10-9--7--|-----------------|
|-----------------|--8--8-7--|-----------------|--8--7-5--7-8-7--|


                      2/4        4/4
|--------------------|----------|--------------------|-----------------|
|--------------------|----------|--------------------|-----------------|
|--------------------|----------|-2------------------|-(2)-------------|
|-9------------------|-(9)------|-2------------------|-(2)-------------|
|-7------------------|-(7)------|-0------------------|-(0)-------------|
|--------------------|----------|--------------------|-----------------|
|
|              ~~       PM-|                            PM----------|
|--------------------|----------|--------------------|-----------------|
|--------------------|----------|--------------------|-----------------|
|--------------------|----------|--------------------|-----------------|
|----/9--9--9--7--5--|----------|----/9--9--9--7--5--|------------5----|
|--------------------|--9--9-7--|--------------------|--9--9-5--7---7--|
|--------------------|----------|--------------------|-----------------|
|
|              ~~       PM-|                            PM----------|
|--------------------|----------|--------------------|-----------------|
|--------------------|----------|--------------------|-----------------|
|--------------------|----------|--------------------|-----------------|
|--------------------|----------|--------------------|-----------------|
|---/10-10-10-10--7--|----------|---/10-10-10-10--7--|-----------------|
|--------------------|--8--8-7--|--------------------|--8--7-5--7-8-7--|


                                2/4
|------------------------------|-----------|
|------------------------------|-----------|
|------------------------------|-----------|
|-2----------------------------|-(2)-------|
|-2----------------------------|-(2)-------|
|-0----------------------------|-(0)-------|
|
|------------------------------|-----------|
|---10b12--10b12-10b12r(10)-8--|-----------|
|------------------------------|-11--11-9--|
|------------------------------|-----------|
|------------------------------|-----------|
|------------------------------|-----------|
|
|------------------------------|-----------|
|------------------------------|-----------|
|---11b12--11b12-11b12r(11)-9--|-----------|
|------------------------------|-10--10-9--|
|------------------------------|-----------|
|------------------------------|-----------|


 4/4                            2/4
|------------------------------|-----------|
|------------------------------|-----------|
|-7----------------------------|-(7)-------|
|-7----------------------------|-(7)-------|
|-5----------------------------|-(5)-------|
|------------------------------|-----------|
|
|------------------------------|-----------|
|---10b12--10b12-10b12r(10)-8--|--7---7----|
|------------------------------|--------7--|
|------------------------------|-----------|
|------------------------------|-----------|
|------------------------------|-----------|
|
|------------------------------|-----------|
|------------------------------|-----------|
|---11b12--11b12-11b12r(11)-9--|-----------|
|------------------------------|-10--10-7--|
|------------------------------|-----------|
|------------------------------|-----------|


 4/4                            2/4
|------------------------------|-----------|
|------------------------------|-----------|
|-4----------------------------|-(4)-------|
|-4----------------------------|-(4)-------|
|-2----------------------------|-(2)-------|
|------------------------------|-----------|
|
|------------------------------|-----------|
|---10b12--10b12-10b12r(10)-8--|-----------|
|------------------------------|-11--11-9--|
|------------------------------|-----------|
|------------------------------|-----------|
|------------------------------|-----------|
|
|------------------------------|-----------|
|------------------------------|-----------|
|---11b12--11b12-11b12r(11)-9--|-----------|
|------------------------------|-10--10-9--|
|------------------------------|-----------|
|------------------------------|-----------|


 4/4                            2/4
                                  PM|
|------------------------------|----------|
|------------------------------|----------|
|-2----------------------------|----------|
|-2----------------------------|--5--4-2--|
|-0----------------------------|--5--4-2--|
|------------------------------|--3--2-0--|
|
|------------------------------|----------|
|---10b12--10b12-10b12r(10)-8--|--7--7----|
|------------------------------|-------9--|
|------------------------------|----------|
|------------------------------|----------|
|------------------------------|----------|
|
|------------------------------|----------|
|------------------------------|----------|
|---11b12--11b12-11b12r(11)-9--|----------|
|------------------------------|-10-10-9--|
|------------------------------|----------|
|------------------------------|----------|


 4/4                            2/4
|------------------------------|-----------|
|------------------------------|-----------|
|------------------------------|-----------|
|-2----------------------------|-(2)-------|
|-2----------------------------|-(2)-------|
|-0----------------------------|-(0)-------|
|
|------------------------------|-----------|
|---10b12--10b12-10b12r(10)-8--|-----------|
|------------------------------|-11--11-9--|
|------------------------------|-----------|
|------------------------------|-----------|
|------------------------------|-----------|
|
|------------------------------|-----------|
|------------------------------|-----------|
|---11b12--11b12-11b12r(11)-9--|-----------|
|------------------------------|-10--10-9--|
|------------------------------|-----------|
|------------------------------|-----------|


 4/4                            2/4
|------------------------------|-----------|
|------------------------------|-----------|
|-7----------------------------|-(7)-------|
|-7----------------------------|-(7)-------|
|-5----------------------------|-(5)-------|
|------------------------------|-----------|
|
|------------------------------|-----------|
|---10b12--10b12-10b12r(10)-8--|--7---7----|
|------------------------------|--------7--|
|------------------------------|-----------|
|------------------------------|-----------|
|------------------------------|-----------|
|
|------------------------------|-----------|
|------------------------------|-----------|
|---11b12--11b12-11b12r(11)-9--|-----------|
|------------------------------|-10--10-7--|
|------------------------------|-----------|
|------------------------------|-----------|


 4/4                            2/4        4/4
                                  PM
|------------------------------|----------|------------------------------|
|------------------------------|----------|------------------------------|
|-4----------------------------|--5--5-4--|-2----------------------------|
|-4----------------------------|--5--5-4--|-2----------------------------|
|-2----------------------------|--5--3-2--|-0----------------------------|
|------------------------------|----------|------------------------------|
|
|------------------------------|----------|------------------------------|
|---10b12--10b12-10b12r(10)-8--|----------|---10b12--10b12-10b12r(10)-8--|
|------------------------------|-11-11-9--|------------------------------|
|------------------------------|----------|------------------------------|
|------------------------------|----------|------------------------------|
|------------------------------|----------|------------------------------|
|
|------------------------------|----------|------------------------------|
|------------------------------|----------|------------------------------|
|---11b12--11b12-11b12r(11)-9--|----------|---11b12--11b12-11b12r(11)-9--|
|------------------------------|-10-10-9--|------------------------------|
|------------------------------|----------|------------------------------|
|------------------------------|----------|------------------------------|


 2/4        4/4                            2/4
   PM|                                       PM|
|----------|------------------------------|-----------*|
|----------|------------------------------|-----------*|
|----------|------------------------------|-----------*|
|--5--4-2--|------------------------------|--5--4-2---*|
|--5--4-2--|------------------------------|--5--4-2---*|
|--3--2-0--|------------------------------|--3--2-0---*|
|
|----------|------------------------------|-----------*|
|----------|--10b12--10b12==(10)r(10)--8--|--7--7-----*|
|-11-11-9--|------------------------------|-------9\--*|
|----------|------------------------------|-----------*|
|----------|------------------------------|-----------*|
|----------|------------------------------|-----------*|
|
|----------|------------------------------|-----------*|
|----------|------------------------------|-----------*|
|----------|--11b12--11b12==(11)r(11)--9--|-----------*|
|-10-10-9--|------------------------------|-10-10-9\--*|
|----------|------------------------------|-----------*|
|----------|------------------------------|-----------*|