Helpless 
as performed by Metallica
on Garage inc.

e|------------|Intro
B|------------|
G|----2--4----|
D|----2--4----|
A|----0--2-2p0|
E|------------|

e|---------------|-----------------|Main riff.
B|---------------|-----------------|
G|o--------------|----------------o|Play 4X
D|o--------------|--------2--4----o|
A|---4--2---4--2-|---4--2-0--2-2p0-|
E|-2-2--0-2-2--0-|-2-2--0----------|End of intro.


Rhytm fig A
e|---------------|-----------------|8X w/ verse
B|---------------|-----------------|
G|o--------------|----------------o|
D|o--------------|--------2--4----o|
A|---4--2---4--2-|---4--2-0--2-2p0-|
E|-2-2--0-2-2--0-|-2-2--0----------|


This is kind of a pre-chorus, just hold the chords.
e|----|----|----|----|----|----|----|--------------------------|
B|----|----|----|----|----|----|----|--------------------------|
G|----|----|----|----|----|----|----|--------------------------|
D|----|-7--|-9--|----|----|-7--|----|----------4-4-4-4-4-4-4-4-|
A|-4--|-5--|-7--|-4--|-4--|-5--|-2--|-4------------------------|
E|-2--|----|----|-2--|-2--|----|-0--|-2------------------------|


The chorus:
e|--------------------------------|3x e|-----------------------|Play
B|--------------------------------|   B|-----------------------|twice.
G|o---------------------------5--o|   G|-----------------------|
D|o-7-7-7-7-7-7-7-7p5---------5--o|   D|-7-7-7-7-7-7-----------|end of
A|--------------------7-5-5h7-----|   A|----------------5----7-|rhytm
E|--------------------------------|   E|--------------3-3--5-5-|fig A
  Helpless!

After first chorus.
e|---------------|-----------------|2X
B|---------------|-----------------|then repeat
G|o--------------|----------------o|rhy fig A
D|o--------------|--------2--4----o|
A|---4--2---4--2-|---4--2-0--2-2p0-|
E|-2-2--0-2-2--0-|-2-2--0----------|

After second chorus.
e|---------------|-----------------|4X
B|---------------|-----------------|
G|o--------------|----------------o|
D|o--------------|--------2--4----o|
A|---4--2---4--2-|---4--2-0--2-2p0-|
E|-2-2--0-2-2--0-|-2-2--0----------|

e|------|----|----|----|Bass solo.
B|------|----|----|----|
G|------|----|----|----|
D|-4----|----|----|----|
A|-4----|----|----|----|
E|-2----|----|----|----|


Bridge stuff
e|-----------------|4X |----------------|4X
B|-----------------|   |----------------|
G|o---------------o|   |o--------------o|
D|o---------------o|   |o--------------o|
A|---0-2----0h2p0--|   |---2-4---2h4p2--|
E|-2------2--------|   |-4-----4--------|

e|-----------------|4X |----------------|4X
B|-----------------|   |----------------|
G|o---------------o|   |o--------------o|
D|o---------------o|   |o--------------o|
A|---3-5---3h5p3---|   |---5-7---5h7p5--|
E|-5-----5---------|   |-7-----7--------|

 Two guitars
e|-----------------|2X |----------------|2X
B|-----------------|   |----------------|
G|o---------------o|   |o--------------o|
D|o---------------o|   |o--------------o|
A|----3-5---3h5p3--|   |---5-7---5h7p5--|
E|--5-----5--------|   |-7-----7--------|
 |                 |   |                |
e|-----------------|   |----------------|
B|-----------------|   |----------------|
G|o---------------o|   |o--------------o|
D|o---5-7---5h7p5-o|   |o--7-9---7h9p7-o|
A|--7-----7--------|   |-9-----9--------|
E|-----------------|   |----------------|

e|----------------------|Still 2 gtrs.
B|----------------------|
G|----------------------|
D|----------------------|
A|---3--5p3------5--7p5-|
E|-5----------7---------|
 |                      |
e|----------------------|
B|----------------------|
G|----------------------|
D|---5--7p5------7--9p7-|
A|-7----------9---------|
E|----------------------|

e|----------------------|
B|----------------------|
G|----------------------|
D|---7--9p7------5--7p5-|
A|-9----------7---------|
E|----------------------|
 |                      |
e|----------------------|
B|----------------------|
G|----9--11p9----7--9p7-|
D|-11---------9---------|
A|----------------------|
E|----------------------|

e|------------------|-------------|
B|------------------|-------------|
G|------------------|-------------|
D|---3--5p3--5---2--|-4-------2-4-|
A|-5---------3-5-0--|-2-----5-0-2-|
E|-------------3----|-------3-----|
 |                  |             |
e|------------------|-------------|
B|------------------|-------------|
G|---5--7p5---------|-------------|
D|-7---------5---2--|-4-------2-4-|
A|-----------3-5-0--|-2-----5-0-2-|
E|-------------3----|-------3-----|

e|------|Both guitars.
B|------|
G|------|
D|-(4)--|
A|-(2)--|
E|------|

e|-------------------------|---------------------|Two guitars.
B|-------------------------|---------------------|
G|-4p2---2--4--4p2---2--4--|-4p2---2--4----------|
D|-4p2-4-2--4--4p2-4-2--4--|-4p2-4-2--4--7-----9-|
A|-----4-----------4-------|-----4-------5--7--7-|
E|-------------------------|----------------5----|
 |                         |                     |
e|-------------------------|---------------------|
B|-------------------------|---------------------|
G|-------------------------|---------------------|
D|-4-----------------------|-------------7-----9-|
A|-4-----------------------|-------------5--7--7-|
E|-2-----------------------|----------------5----|

e|-------------------------|---------------------|Play this 3X
B|-------------------------|---------------------|
G|-4p2---2--4--4p2---2--4--|-4p2---2--4----------|
D|-4p2-4-2--4--4p2-4-2--4--|-4p2-4-2--4--7-----9-|
A|-----4-----------4-------|-----4-------5--7--7-|
E|-------------------------|----------------5----|
 |                         |                     |
e|-------------------------|---------------------|
B|-------------------------|---------------------|
G|-triplets----------------|---------------------|
D|-11-11-11-11----(11)-----|-------------7-----9-|
A|-9--9--9--9-----(9 )-----|-------------5--7--7-|
E|-------------------------|----------------5----|

e|--------------------------|----------------------|4x
B|--------------------------|----------------------|
G|o-4p2---2--4--4p2---2--4--|-4p2---2--4----------o|Both gtrs
D|o-4p2-4-2--4--4p2-4-2--4--|-4p2-4-2--4--7-----9-o|
A|------4-----------4-------|-----4-------5--7--7--|
E|--------------------------|----------------5-----|

Rhytm fig B.
e|-------|--------------|-------|--------------|
B|-------|--------------|-------|--------------|w/ lyrics
G|-------|--------------|-------|--------------|
D|----2--|-4----7--9--7-|----2--|-4------------|
A|-4--0--|-2----5--7--5-|-4--0--|-2----2--2--2-|
E|-2-----|--------------|-2-----|------0--0--0-|

e|-------|--------------|-------|--------------|
B|-------|--------------|-------|--------------|
G|-------|--------------|-------|--------------|
D|----2--|-4----7--9--7-|----2--|-4----7--9--7-|
A|-4--0--|-2----5--7--5-|-4--0--|-2----5--7--5-|
E|-2-----|--------------|-2-----|--------------|

e|-------------------------|2X
B|-------------------------|
G|-------------------------|
D|-6---------------7--9--7-|
A|-4--4-4-4-4-4-4--5--7--5-|
E|-------------------------|

e|--------|---------|-3/4 time--------|
B|--------|---------|-----------------|
G|--------|---------|-----------------|
D|-6\--7\-|-9\--10\-|-----------------|
A|-4\--5\-|-7\--8\--|-9-7-------------|
E|--------|---------|------9--8--7--5-|End rhytm fig B.

e|--------------------------|----------------------|4x
B|--------------------------|----------------------|
G|o-4p2---2--4--4p2---2--4--|-4p2---2--4----------o|
D|o-4p2-4-2--4--4p2-4-2--4--|-4p2-4-2--4--7-----9-o|
A|------4-----------4-------|-----4-------5--7--7--|
E|--------------------------|----------------5-----|

Repeat rhytm fig B once.

After second time
e|--------------------------|----------------------|4x
B|--------------------------|----------------------|
G|o-4p2---2--4--4p2---2--4--|-4p2---2--4----------o|
D|o-4p2-4-2--4--4p2-4-2--4--|-4p2-4-2--4--7-----9-o|
A|------4-----------4-------|-----4-------5--7--7--|
E|--------------------------|----------------5-----|

e|---------------|-----------------|3X
B|---------------|-----------------|
G|o--------------|----------------o|
D|o--------------|--------2--4----o|
A|---4--2---4--2-|---4--2-0--2-2p0-|
E|-2-2--0-2-2--0-|-2-2--0----------|

e|---------------|---------------------|
B|---------------|---------------------|
G|---------------|---------2-----------|
D|---------------|-4-4-4-4-------------|
A|---4--2---4--2-|-------------4-2-2-2-|
E|-2-2--0-2-2--0-|-------------2-0-0-0-|

Solo
e|-----------------------|------------------------------|
B|-17b--17b--17b-17brp14-|-17brp14-17brp14-17bv---17p14-|
G|-----------------------|------------------------------|
D|-----------------------|------------------------------|
A|-----------------------|------------------------------|
E|-----------------------|------------------------------|


e|-17b19------17b19------|17prbr19---14h17p14v--14-14---|                
B|-----------------------|------------------------------|
G|-----------------------|------------------------------|
D|-----------------------|------------------------------|
A|-----------------------|------------------------------|
E|-----------------------|------------------------------|


e|-17p14---14-------14-17p14--14-------14----|
B|-------17--17b--17--------17--17b--17------|
G|-------------------------------------------|
D|-------------------------------------------|
A|-------------------------------------------|
E|-------------------------------------------|

e|-17p14---14-------14-17p14--14------14-----|
B|-------17--17b--17--------17--17--17-------|
G|-------------------------------------------|
D|-------------------------------------------|
A|-------------------------------------------|
E|-------------------------------------------|

e|-17p16p14--14-17p16p14--14-17p16p14--14-17p16p14--14-|
B|---------17-----------17-----------17-----------17---|
G|-----------------------------------------------------|
D|-----------------------------------------------------|
A|-----------------------------------------------------|
E|-----------------------------------------------------|

e|-------14-14-------------------14-14-------14-14-|
B|-17b19-------17b19-17b19-17b19-------17b19-------|
G|-------------------------------------------------|
D|-------------------------------------------------|
A|-------------------------------------------------|
E|-------------------------------------------------|

e|-17p14--14-17p14---------------------------------|
B|------17--------17-14---14h17-14-----------------|
G|---------------------16----------16p14----16-----|
D|---------------------------------------16--------|
A|-------------------------------------------------|
E|-------------------------------------------------|

e|----------------------------------------------------|
B|----------------------------------------------------|
G|-14-14-14p12-14-------------------------------------|
D|----------------16p14---14-16p14--------------------|
A|----------------------16---------16p15-14-12-14p12--|
E|----------------------------------------------------|

e|-------------------------------------------------------------|
B|-------------------------------------------------------------|
G|-14-14-14p12--14---------------------------------------------|
D|-----------------16p14-----14h16-14--------------------------|
A|-----------------------16-----------16-15-14-12----12-14-16--|
E|------------------------------------------------14-----------|


e|---------------------------------|--------------------|
B|---------------------------------|--------------------|
G|--------------14----14-14-14--14-|-16b--16b--16bp14---|
D|--------------14----14-14-14--14-|-16b--16b--------16-|
A|---12-14-16------16--------------|--------------------|
E|-14------------------------------|--------------------|


e|----------------------------|--------------------------|
B|---Hold bend----------------|-start releasing----------|
G|----------------------------|-gradually----------------|
D|----------------------------|--------------------------|
A|---14b......................|...........r---12-----12v-|
E|----------------------------|-----------------14-14----|

e|- Pick notes & vibrate trem bar.--|-continue and stop --------------|
B|----------------------------------|------at this sign!--------------|
G|----------------------------------|---------------------16161616b18-|
D|-6-----7-----9-----11-------------|-12----14------16-!--------------|
A|----------------------------------|---------------------------------|
E|----------------------------------|---------------------------------|

e|-19p14----19p14----19p14--17p14----17p14----17p14--|
B|-------17-------17--------------17-------17--------|
G|o--------------------------------------------------|
D|o--------------------------------------------------|
A|---------------------------------------------------|
E|---------------------------------------------------|

 
e|-17p12---17p12---17p12--15-14-12------------------|
B|------15-------15----------------15--14-12---12---|
G|-------------------------------------------14----o|Repeat 3X 
D|-------------------------------------------------o|
A|--------------------------------------------------|
E|--------------------------------------------------|

e|-19p14----19p14----19p14--17p14----17p14----17p14--|
B|-------17-------17--------------17-------17--------|
G|---------------------------------------------------|
D|---------------------------------------------------|
A|---------------------------------------------------|
E|---------------------------------------------------|


e|-17p12---17p12---17p12--15-12--12--15-12--------|
B|------15-------15------------15---------15-12---|
G|------------------------------------------------|
D|------------------------------------------------|
A|------------------------------------------------|
E|------------------------------------------------|


e|------------17-14--14--17-14--14--|
B|--17bv-----------17---------17----|
G|----------------------------------|
D|----------------------------------|
A|----------------------------------|
E|----------------------------------|

 
e|------------------19p14-17p14-16p14-12h14-|
B|-17bv------17-17--------------------------|
G|------------------------------------------|
D|------------------------------------------|
A|------------------------------------------|
E|------------------------------------------|

e|------14-14-14-14-------15-15-15-15-------|
B|-17b19------------18b19-------------------|
G|------------------------------------------|
D|------------------------------------------|
A|------------------------------------------|
E|------------------------------------------|


e|-------17-17-17-17-------18-18-18-18-|--22b-------r-|
B|-20b22-------------21b23-------------|--------------|
G|-------------------------------------|--------------|
D|-------------------------------------|--------------|
A|-------------------------------------|--------------|
E|-------------------------------------|--------------|

Rhytm gtr plays main riff 8x & rhytm fig B once during solo.

After solo:
e|---------------|-----------------|4X
B|---------------|-----------------|
G|o--------------|----------------o|
D|o--------------|--------2--4----o|
A|---4--2---4--2-|---4--2-0--2-2p0-|
E|-2-2--0-2-2--0-|-2-2--0----------|

e|---------------|------------------|Repeat
B|---------------|------------------|and fade
G|---------------|------------------|
D|---------------|--------2--4------|
A|-4--4----4--4--|-4--4---0--2--2p0-|
E|-2--2----2--2--|-2--2-------------|
 
b:bend
r:release
h:hammer
p:pull-off
v:vibrate
prbr:pre-bend and release

Tab by: mattinurro@hotmail.com