ESCAPE
				METALLICA
			  RIDE THE LIGTHINING


 Two guitars:							    3 times
||--------------------------------------|----------------------------------||
||--------------------------------------|----------------------------------||
||o---------------------------4h5---4---|(4)----------5---4h5h4-----------o||
||o-7-------------------------5h7---5---|(5)----------7---5h7h5---7---5---o||
||--0---0---0---0---0---0---0-----------|-------------------------8---7----||
||--------------------------------------|----------------------------------||
	PM...................|


|--------------------------------------|-----------------------------------|
|--------------------------------------|-----------------------------------|
|----------------------------4h5---4---|(4)----------5---5h4---------------|
|--7-------------------------5h7---5---|(5)----------7---7h5---7---7-------|
|--0---0---0---0---0---0---0-----------|-----------------------8---8-------|
|--------------------------------------|-----------------------------------|
       PM...................|

	      4 times
||-------------------||------------------|-----------------|-----------------|
||-------------------||------------------|-----------------|-----------------|
||o---------------5-o||o---------------4-|---------8-7-5-7-|---------------5-|
||o---------------7-o||o---------------5-|-----------------|-7-------------4-|
||--0-0-0-0-0-0-0----||--0-0-0-0-0-0-0---|-0-0-0-0-6-5-3-5-|-0-0-0-0-0-0-0---|
||-------------------||------------------|-----------------|-----------------|
    PM...........|	 PM...........|	   PM.....|	       PM.........|


|-----------------|
|-----------------|
|---------8-7-5-7-|
|-----------------|
|-0-0-0-0-6-5-3-5-|
|-----------------|
  PM.....|

Verse

Rhy Fig 1

  Feel no pain,but my life ain't easy. I know I'm my best friend
|-----------------|-----------------|-----------------|------------------|
|-----------------|-----------------|-----------------|------------------|
|-----------------|-----------------|-----------------|------------------|
|-----------------|-----------------|-----------------|------------------|
|-4-4-4-4-4-4-4-4-|-4-4-4-4-4-4-4-55|-554-4-4-4-4-4-4-|-4-4-4-4-4-4-2-55-|
|-2-2-2-2-2-2-2-2-|-2-2-2-2-2-2-2-33|-332-2-2-2-2-2-2-|-2-2-2-2-2-2-2-33-|
  PM....................................................................|

   
 No one cares but I'm so much stronger I'll figth until the end
|-----------------|-----------------|-----------------|-----------------|
|-----------------|-----------------|-----------------|-----------------|
|-----------------|-----------------|-----------------|-----------------|
|-----------------|-----------------|-----------------|-----------------|
|-554-4-4-4-4-4-4-|-4-4-4-4-4-4-4-55|-554-4-4-4-4-4-4-|-4---5---x2--x3--|
|-332-2-2-2-2-2-2-|-2-2-2-2-2-2-2-33|-332-2-2-2-2-2-2-|-2---3---x0--x1--|
PM...................................................|


w/ Rhy Fig 1
To escape from the true false world.
Undamaged destiny.
Can't get caught in the nedless circle.
Ring of stupidity.


Chorus:

 Riff A							      end Riff A
	Out for my own;   out to be free.
|-----------------|-----------------|-----------------|-----------------|
|-----------------|-----------------|-----------------|-----------------|
|-------7---6---4-|-------7---6---7-|-7\slide\4-------|-----------------|
|-----------------|-7---------------|-----------------|-----------------|
|-----------------|-----------------|-----------------|-----------------|
|-----------------|-----------------|-----------------|-----------------|
|
|Rhy Fig 2						   end Rhy Fig 2
|-----------------|-----------------|-----------------|-----------------|
|-----------------|-----------------|-----------------|-----------------|
|-----------------|-----------------|-----------------|---------------2-|
|-----------------|-----------------|-----------------|-------------4---|
|-7---------------|-(7)-----------5-|-(5)-----------4-|-(4)-------4-----|
|-5---------------|-(5)-----0--5--3-|-(3)-----0--3--2-|-(2)-----2-------|
								PM.....|

w/ Rhy Fig 2 & Riff A (both 2 times)

One with my mind, They just can see
No need to hear , things that they say

						       _________________
w/ Rhy Fig 2					      |1.		|
	Life's for my own to live my own way
|-----------------|-----------------|-----------------|----------------||
|-----------------|-----------------|-----------------|----------------||
|-------7---6---4-|-------7---6---7-|-7\slide\4-------|-\2------------o||
|-----------------|-7---------------|-----------------|---------------o||
|-----------------|-----------------|-----------------|----------------||
|-----------------|-----------------|-----------------|----------------||

 _______________
|2.
|---------------|
|---------------|
|-\2------------|
|---------------|
|---------------|
|---------------|


Half time feel
Bridge

||---------------------------------|----------------------------------||
||---------------------------------|----------------------------------||
||o------------4---2---------------|-------------2-------------------o||
||o--------4---4---2---------------|---------4---2---5---------------o||
||-----4-------2---0---------------|-----4-------0---5----------------||
||-2-------------------------------|-2---------------3----------------||
   PM.......|			     PM.......|


|-----------------|-----------------|-----------------|-----------------|
|-----------------|-----------------|-----------------|-----------------|
|---------4---2---|-----------------|---------4---2---|-----------------|
|-4---4---4---2---|-4---4---5---5---|-4---4---4---2---|-4---4---5---5---|
|-4---4---2---0---|-4---4---5---5---|-4---4---2---0---|-4---4---5---5---|
|-2---2-----------|-2---2---3---3---|-2---2-----------|-2---2---3---3---|
  PM...|	    PM.....................|		PM...........|


|-----------------|-----------------|-----------------|-----------------|
|-----------------|-----------------|-----------------|-----------------|
|---------4---2---|-----------------|---------4---2---|-----------------|
|-4---4---4---2---|-4---4---5---5---|-4---4---4---2---|-2---2---5---5---|
|-4---4---2---0---|-4---4---5---5---|-4---4---2---0---|-2---2---5---5---|
|-2---2-----------|-2---2---3---3---|-2---2-----------|-0---0---3---3---|
  PM...|	    PM.....................|		PM...........|


|-----------------|-----------------|-------------------------|
|-----------------|-----------------|-------------------------|  
|-------4-2-2-2-2-|-------2---------|-------2-----------------|
|-----4-4-2-2-2-2-|-----4-2-5-5-5-5-|-----4-------------------|
|---4---2-0-0-0-0-|---4---0-5-5-5-5-|---4-----3-3-3-3-3-3-3-3-|
|-2---------------|-2-------3-3-3-3-|-2-------1-1-1-1-1-1-1-1-|
 PM..........................................................|


 Guitar Solo

|---------------------------------|---------------------------------|
|---------------------------------|---------------------------------|
|-15B----------15B-------15B------|-15B--15B--15B--15B-15B-r15p14-12|
|---------------------------------|---------------------------------|
|---------------------------------|---------------------------------|
|---------------------------------|---------------------------------|
| 
|Rhy Fig 3 (4 times)					end Rhy Fig 3
|---------------------------------|---------------------------------|
|---------------------------------|---------------------------------|
|---------------------------------|---------------------------------|
|-----------------------------5---|-----------------8---7---5---7---|
|-2---------------------------5---|---------------------------------|
|-0---0---0---0---0---0---0-------|-0---0---0---0---6---5---3---5---|


|-15B----15B----15B----15B-r15----|-(15)--p12----12------------12-|
|---------------------------------|-----------15-----15B~-~-15----|
|---------------------------------|-------------------------------|
|---------------------------------|-------------------------------|
|---------------------------------|-------------------------------|
|---------------------------------|-------------------------------|

|-15-14-12----14-12-------12----------------------------------|
|----------15-------15-14----15-14-12----15-14-12-15-14-12----|
|-------------------------------------14-------------------14-|
|-------------------------------------------------------------|
|-------------------------------------------------------------|
|-------------------------------------------------------------|


|------------------------------------------------|
|--14-12-------12--------------------------------|
|--------14-12----14-12-11-14-12p11p9--7---------|
|-------------------------------------------9----|
|------------------------------------------------|
|------------------------------------------------|


|-----------------------------------------------|----------------------------|
|-----------------------------------------------|----------------------------|
|-7b---------------7----9-----7-----9-----7-----|-9B-r9p7-------7------------|
|-------------9---------------------------------|-----------9----------------|
|-----------------------------------------------|----------------------------|
|-----------------------------------------------|----------------------------|


|--12--10--9----9--10--9-----|---------------------------|
|------------12----------12--|--10--9--10B---10----9h10--|
|----------------------------|---------------------------|
|----------------------------|---------------------------|
|----------------------------|---------------------------|
|----------------------------|---------------------------|
|
|Rhy Fig 4 (2 times)			    end Rhy Fig 4
|----------------------------|---------------------------|
|----------------------------|---------------------------|
|----------------------------|---------------------------|
|--2--4--4--2--4-------------|--2--4--4--2--2--5--5------|
|--2--4--4--2--4-------------|--2--4--4--2--2--5--5------|
|--0--2--2--0--2-------------|--0--2--2--0--0--3--3------|
   PM........|			PM...........|


|-------------------------|----------------------------|
|-9-----------------------|----------------------------|
|-------9-----------9--11-|-11b-r11p9-11-9~-~----9--11-|
|----------11~-~-~--------|-------------------11-------|
|-------------------------|----------------------------|
|-------------------------|----------------------------|


|---------------------------------------|
|------9--12p9----9-12p9-10p9----9------|
|-11B----------11-------------11---11-9-|
|---------------------------------------|
|---------------------------------------|
|---------------------------------------|


|---------------------9h12p9------------------|
|--------------9-12-9--------12p9-------------|
|-11-9----9-11--------------------11B-r11p9\8-|
|------11-------------------------------------|
|---------------------------------------------|
|---------------------------------------------|

 w/ Delay
|----------------------------------------------------|
|-----0-0-7-0-0-0-9-0-0-0-10-0-0-0-12-0-0-0-10-0-0-0-|
|-9-8------------------------------------------------|
|----------------------------------------------------|
|----------------------------------------------------|
|----------------------------------------------------|

Rhy Fig 3 till fade 



Notation:
B: bend up one step (2 frets)
b: bend up a half step (1 fret)
r: release bend

The Metallica Tab Page: http://www.metallica-tablature.com