Metallica
Die Die My Darling (Garage Inc. Cd 1 track 5)


Die, Die my Darling (original version by The Misfits as a single)
Tabbed by Arnold Boukes, Holland


Tune down  step:
6 = Eb
5 = Ab
4 = Db
3 = Gb
2 = Bb
1 = Eb

			  Rhythm Fig. 1
Intro (Hi-hat)		  B5

|-----------|-----------|------------------------------|--------------------------|
|-----------|-----------|------------------------------|--------------------------|
|-----------|-----------|----4------4------4------4----|----4------4----4----4----|
|-----------|-----------|----4------4------4------4----|----4------4----4----4----|
|-----------|-----------|----2------2------2------2----|----2------2----2----2----|
|-----------|-----------|------------------------------|--------------------------|


								 End Rhy.Fig.1
 G5					F#5
|-------------------------------------|-----------------------------------------|
|-------------------------------------|-----------------------------------------|
|-------------------------------------|-----------------------------------------|
|----5------5---5------5---5---5---4--|----4---4--------4--------4---4------4---|
|----5------5---5------5---5---5---4--|----4---4--------4--------4---4------4---|
|----3------3---3------3---3---3---2--|----2---2--------2--------2---2------2---|



Now, continue Rhy. Fig. 1 during the following lyrics

B5			     G5		F#5
Die, die, die my darling. Don't utter a single word.

B5			     G5		F#5
Die, die, die my darling. Just shut your pretty eyes.





   let ring --------------|		p.m.------------------------

|-----------0------|----0-----------|---------------------------------| 
|-----------0------|----0-----------|---------------------------------| 
|--0---------------|----0-----------|--4---4---4---4---4---4---4---4--| 
|--2---------------|----------------|--4---4---4---4---4---4---4---4--| 
|--2---------------|----------------|--2---2---2---2---2---2---2---2--| 
|--0---------------|----------------|---------------------------------| 

 

Ill be seeing you again


p.m------------------------------|		 p.m.---------------------------| 

|---------------------------------|---------0---|---------------------------------|--------| 
|---------------------------------|---------0---|---------------------------------|--------| 
|--4---4---4---4---4---4---4---4--|---------0---|---------------------------------|--------| 
|--4---4---4---4---4---4---4---4--|-------------|--5---5---5---5---5---5---5---5--|----5---| 
|--2---2---2---2---2---2---2---2--|-------------|--5---5---5---5---5---5---5---5--|----5---| 
|---------------------------------|--0----------|--3---3---3---3---3---3---3---3--|----3---| 

Ill be seeing you in hell

Rhy. Fig.2

p.m---------------------------------------------------------------| 

|---------------------------------|----------------------------------| 
|---------------------------------|----------------------------------| 
|--4---4---4---4---4---4---4---4--|--4---4---4---4---4---4---4---4---| 
|--4---4---4---4---4---4---4---4--|--4---4---4---4---4---4---4---4---| 
|--2---2---2---2---2---2---2---2--|--2---2---2---2---2---2---2---2---| 
|---------------------------------|----------------------------------| 

End Rhy. Fig.2

|-------------------|-------------------| 
|-------------------|-------------------| 
|-------------------|---7---7---6---6---| 
|---5---5---5---5---|---7---7---6---6---| 
|---5---5---5---5---|---5---5---4---4---| 
|---3---3---3---3---|---5---5---4---4---| 


Play Rhy.Fig. 2 during the following lyrics


So dont cry to me, oh baby.

Your future is in an oblong box. Dont cry to me, oh baby.

You should have seen it coming on. Dont cry to me, oh baby.

Had to know it was in your cards. Dont cry to me, oh baby.

Dead-end zone for a dead-end girl. Dont cry to me, oh baby.

And now your life drains on that floor. Dont cry to me, oh baby.


From here just start with Rhy. Fig. 1 again


P.S. 

This is how I play it, and I know its not perfect.
But I think it is good.

Enjoy

Arnold

____________________________________________________________________

Die Die My Darling

 REFRAIN 1

||-------------|------------|----------------|------------------||
||-------------|------------|----------------|------------------||
||o-4--4--4--4-|-4--4--4--4-|----------------|-----------------o|| x3
||o-4--4--4--4-|-4--4--4--4-|-5--5-5-5-5-5-5-|-4-4-4-4-4-4-4-4-o||
||--2--2--2--2-|-2--2--2--2-|-5--5-5-5-5-5-5-|-4-4-4-4-4-4-4-4--||
||-------------|------------|-3--3-3-3-3-3-3-|-2-2-2-2-2-2-2-2--||
 Die, die, die my darling
 Don't utter a single word
 Die, die, die my darling
 Just shut your pretty eyes 

|-0-------|---------|-----------------|-----------------|
|-0-------|---------|-----------------|-----------------|
|-0-------|---------|-4-4-4-4-4-4-4-4-|-4-4-4/6-6\4-4-4-|
|-2-------|---------|-4-4-4-4-4-4-4-4-|-x-x-x/x-x\x-x-x-|
|-2-------|---------|-2-2-2-2-2-2-2-2-|-2-2-2/4-4\2-2-2-|
|-0-------|---------|-----------------|-----------------|
 I'll be seeing you again 

             pm-------------|
|----0-----|-----------------|---------|
|----0-----|-----------------|---------|
|----------|-----------------|---------|
|-2--------|-----------------|---------|
|-2--------|-5-5-5-5-5-5-5-5-|-5-------|
|-0--------|-3-3-3-3-3-3-3-3-|-3-------|
 I'll be seeing you in Hell 


 VERSE 1

  pm------------------ -- - -  -  -|
|-----------------|-----------------|----------------|-----------------|
|-----------------|-----------------|----------------|-----------------|
|-4-4-4-4-4-4-4-4-|-4-4-4-4-4-4-4-4-|----------------|-7-7-7-7-6-6-6-6-|
|-4-4-4-4-4-4-4-4-|-4-4-4-4-4-4-4-4-|-5--5-5-5-5-5-5-|-7-7-7-7-6-6-6-6-|
|-2-2-2-2-2-2-2-2-|-2-2-2-2-2-2-2-2-|-5--5-5-5-5-5-5-|-5-5-5-5-4-4-4-4-|
|-----------------|-----------------|-3--3-3-3-3-3-3-|-----------------|
                                      Don't cry to me oh baby

     pm-------------- -- - -  -  -|
||-----------------|-----------------|----------------|------------------||
||-----------------|-----------------|----------------|------------------||
||o-4--4-4-4-4-4-4-|-4-4-4-4-4-4-4-4-|----------------|-7-7-7-7-6-6-6-6-o|| x5
||o-4--4-4-4-4-4-4-|-4-4-4-4-4-4-4-4-|-5--5-5-5-5-5-5-|-7-7-7-7-6-6-6-6-o||
||--2--2-2-2-2-2-2-|-2-2-2-2-2-2-2-2-|-5--5-5-5-5-5-5-|-5-5-5-5-4-4-4-4--|| 
||-----------------|-----------------|-3--3-3-3-3-3-3-|------------------||
 Your future's in an oblong box
 Don't cry to me oh baby
 Should have seen it a-coming on
 Don't cry to me oh baby 
 I don't know it was in your power
 Don't cry to me oh baby
 Dead-end girl for a dead-end guy
 Don't cry to me oh baby
 And now your life drains on that floor
 Don't cry to me oh baby 


 REFRAIN 2

||-------------|------------|----------------|------------------||
||-------------|------------|----------------|------------------||
||o-4--4--4--4-|-4--4--4--4-|----------------|-----------------o|| 
||o-4--4--4--4-|-4--4--4--4-|-5--5-5-5-5-5-5-|-4-4-4-4-4-4-4-4-o||
||--2--2--2--2-|-2--2--2--2-|-5--5-5-5-5-5-5-|-4-4-4-4-4-4-4-4--||
||-------------|------------|-3--3-3-3-3-3-3-|-2-2-2-2-2-2-2-2--||
 Die, die, die my darling
 Don't utter a single word
 Die, die, die my darling
 Just shut your pretty mouth

|-0-------|---------|-----------------|---------------|
|-0-------|---------|-----------------|---------------|
|-0-------|---------|-4-4-4-4-4-4-4-4-|-4-/6-6-/7-7\x-|
|-2-------|---------|-4-4-4-4-4-4-4-4-|-x-/x-x-/x-x---|
|-2-------|---------|-2-2-2-2-2-2-2-2-|-2-/4-4-/5-5\x-|
|-0-------|---------|-----------------|---------------|
  I'll be seeing you again

             pm-------------------------------|
|----0-----|-----------------|-----------------|
|----0-----|-----------------|-----------------|
|----------|-----------------|-----------------|
|-2--------|-----------------|-----------------|
|-2--------|-5-5-5-5-5-5-5-5-|-5-5-5-5-5-5-5-5-|
|-0--------|-3-3-3-3-3-3-3-3-|-3-3-3-3-3-3-3-3-|
 I'll be seeing you in Hell 
 

 VERSE 2 


 REFRAIN 3

||-------------|------------|----------------|------------------||
||-------------|------------|----------------|------------------||
||o-4--4--4--4-|-4--4--4--4-|----------------|-----------------o|| 
||o-4--4--4--4-|-4--4--4--4-|-5--5-5-5-5-5-5-|-4-4-4-4-4-4-4-4-o||
||--2--2--2--2-|-2--2--2--2-|-5--5-5-5-5-5-5-|-4-4-4-4-4-4-4-4--||
||-------------|------------|-3--3-3-3-3-3-3-|-2-2-2-2-2-2-2-2--||
 Die, die, die my darling
 Don't utter a single word
 Die, die, die my darling
 Just shut your pretty eyes 

|-0-------|---------|-----------------|----------------|
|-0-------|---------|-----------------|----------------|
|-0-------|---------|-4-4-4-4-4-4-4-4-|-4-/6-6/7-7/9-9-|
|-2-------|---------|-4-4-4-4-4-4-4-4-|-x-/x-x/x-x/x-x-|
|-2-------|---------|-2-2-2-2-2-2-2-2-|-2-/4-4/5-5/7-7-|
|-0-------|---------|-----------------|----------------|
  I'll be seeing you again

             pm-------------|
|----0-----|-----------------|---------|
|----0-----|-----------------|---------|
|----------|-----------------|---------|
|-2--------|-----------------|---------|
|-2--------|-5-5-5-5-5-5-5-5-|-5-------|
|-0--------|-3-3-3-3-3-3-3-3-|-3-------|
 I'll be seeing you in Hell 

|------------|------------|------------|---------|--------|
|------------|------------|------------|---------|--------|
|-4--4--4--4-|-4--4--4--4-|-4--4--4--4-|-4-------|--------| 
|-4--4--4--4-|-4--4--4--4-|-4--4--4--4-|-4-------|--------|
|-2--2--2--2-|-2--2--2--2-|-2--2--2--2-|-2-------|--------|
|------------|------------|------------|---------|--------|

  
    "Can you give me an advice how to reach so far as you guys in Metallica have ??"
    "Kill yourself now. There's too many musicians on the planet! Love, James."

Tabbed by Arnold

_________________________________________________________________

Die, Die My Darling		Metallica, (Org. af The Misfits) 

Tab by Hilsen Anders Plesner


(Intro)
BBBB  BBBB  G_ _ _ _   F#_ _ _ _


B	                G..	         F#
Die die die my darling,    dont utter a single word
B..	                   G..	             F#
   Die die die my darling,    just shut your pretty eyes
E..	                B
   Ill be seeing you again
E..	         G	       (break)   B
   Yeah, Ill be seeing you...........in hell


-------	  G..	          F#	      B..
2X 	     Dont cry to me oh baby, 	 Your futures in an oblong box
	  G..	          F#	      B..
	     Dont cry to me oh baby,    you should have seen it coming on
	  G..		  F#	      B..
	     Dont cry to me oh baby,	 had to know when was in your cards
	  G..		  F#	      B..
	     Dont cry to me oh baby,	 dead end go for a dead end girl
	  G..		  F#	      B..
	     Dont cry to me oh baby,	 now your life drains on the floor
	  G..		  F#
	     Dont cry to me oh baby....
	  B		         G..
	  Die die die my darling,   dont utter a single word
	  B..	                    G..
	     Die die die my darling,   just shut your pretty mouth
	  E..	                 B
	     Ill be seeing you again   (yeah  yeah  yeah)
	  E..	     G	           (break)   B
	     Ill be seeing you...........in hell....
-------

B
Da da die
B
Da da die
B
Da da da d


Hilsen Anders Plesner