METALLICA - BLEEDING ME

Tune down 1/2 step

Clean
E|--------------------------------------------------------------------|   }
B|--------------------------------------------------------------------|   }
G|--------------------------------------------------------------------|   }
D|--------5p0------------------5-------------5p0----------------------|   }
A|----/7-------7~~---7-------5----7~~----/7-------7~~-----7------4--2-|   }
E|-0--------------0-----0--5----------0----------------0-----0h5----3-|   }
                                                                          }   
Play Twice                                                               }
                                                                          }
E|--------------------------------------------------------------------|   }
B|--------------------------------------------------------------------|   }
G|--------------------------------------------------------------------|   }
D|--------5p0------------------5-------------5p0----------------------|   }
A|----/7-------7~~---7-------5----7~~----/7-------7/5-----5-----5-----|   }
E|-0--------------0-----0--5----------0----------------3----3-2---2-0-|   }

Then:
E|--------------------------------------------------------------------|
B|--------------------------------------------------------------------|
G|--------------------------------------------------------------------|
D|--------5p0------------------5-------------5p0----------------------|
A|----/7-------7~~---7-------5----7~~----/7-------7~~-----7------4--2-|   
E|-0--------------0-----0--5----------0----------------0-----0h5----3-|

E|--------------------------------------------------------------------|
B|--------------------------------------------------------------------|
G|--------------------------------------------------------------------|
D|--------5p0------------------5-------------5h7--7b------------------|
A|----/7-------7~~---7-------5----7~~----/7--------------5-----5------|
E|-0--------------0-----0--5----------0---------------3----3-2---2-0--|

With this as backing:
Clean
E|-0------0-------0--------0----------0------0--------0-------0-------|
B|-8------8-------8--------8----7-----8------8--------8-------8-----7-|
G|-9------9-------9--------9----------9------9--------9-------9-------|
D|--------------------------------------------------------------------|
A|--------------------------------------------------------------------|
E|--------------------------------------------------------------------|

E|-0------0-------0--------0----------0------0--------0-------0-------|
B|-8------8-------8--------8----7-----8------8--------8-------8-----7-|
G|-9------9-------9--------9----------9------9--------9-------9-------|
D|--------------------------------------------------------------------|
A|--------------------------------------------------------------------|
E|--------------------------------------------------------------------|

Verse 1:
E|--------------------------------------------------------------------|
B|--------------------------------------------------------------------|
G|--------------------------------------------------------------------|
D|--------5p0------------------5-------------5p0----------------------|
A|----/7-------7~~---7-------5----7~~----/7-------7~~-----7------4--2-|
E|-0--------------0-----0--5----------0----------------0-----0h5----3-|

E|-----------------------------------------------------------------------|
B|-----------------------------------------------------------------------|
G|----------------------------------------------------x--7--7/9--9/12--9-|
D|--------5p0------------------5-------------5p0-------------------------|
A|----/7-------7~~---7-------5----7~~----/7-------5~~-x--5--5/7--7/10--7-|
E|-0--------------0-----0--5----------0----------------------------------|

E|------------------------------------------------------------------------|
B|------------------------------------------------------------------------|
G|------------------------------------------------------------------------|
D|--------5p0------------------5-------------5p0---------------5--7b--5~~-|
A|----/7-------7~~---7-------5----7~~----/7-------5~~-----5h7-------------|
E|-0--------------0-----0--5----------0----------------0------------------|

E|--------------------------------------------------------------------|
B|--------------------------------------------------------------------|
G|--------------------------------------------------------------------|
D|--------5p0------------------5-------------5p0----------------------|
A|----/7-------7~~---7-------5----7~~----/7-------7/5-----5-----5-----|
E|-0--------------0-----0--5----------0----------------3----3-2---2-0-|

Verse backing:
Clean
E|-------------------------------12-------------------------------------7-|
B|-------------------------------12--------------------------------8----7-|
G|-------------------------12---------------------------------9---------9-|
D|-------------------14---------------------------------------------------|
A|------------------------------------------------------------------------|
E|------------------------------------------------------------------------|

E|-------------------------------12---------------------------------------|
B|-------------------------------12---------------------------------------|
G|-------------------------12---------------------------------------------|
D|-------------------14---------------------------------------------------|
A|------------------------------------------------------------------------|
E|------------------------------------------------------------------------|

Chorus:
Distorted
E|-------------------------------------------------|
B|-------------------------------------------------|
G|-9-9-x-9-9---7-7-x-7-7---7-7-x-7-7---9-9-x-9-9---|   Play Twice
D|-9-9-x-9-9---7-7-x-7-7---7-7-x-7-7---9-9-x-9-9---|     with:
A|-7-7-x-7-7---5-5-x-5-5---5-5-x-5-5---7-7-x-7-7---|
E|-------------------------------------------------|

Play Twice
E|--------------------------------------------------------------------------|
B|--------------------------------------------------------------------------|
G|----------12b~~----------------------------7------------------------------|
D|------12-----------------5--7b----------5-----7b~~------5--7b---7p5-------|
A|-/14-----------------/7-------------/7-------------------------------7~~~-|
E|--------------------------------------------------------------------------|

Verse 2 (with same backings as before):
Clean
E|--------------------------------------------------------------------|
B|--------------------------------------------------------------------|
G|--------------------------------------------------------------------|
D|--------5p0------------------5-------------5p0----------------------|
A|----/7-------7~~---7-------5----7~~----/7-------7~~-----7------4--2-|
E|-0--------------0-----0--5----------0----------------0-----0h5----3-|

E|--------------------------------------------------------------------|
B|--------------------------------------------------------------------|
G|--------------------------------------------------------------------|
D|--------5p0------------------5-------------5h7--7b------------------|
A|----/7-------7~~---7-------5----7~~----/7--------------5-----5------|
E|-0--------------0-----0--5----------0---------------3----3-2---2-0--|

E|------------------------------------------------------------------------|
B|------------------------------------------------------------------------|
G|------------------------------------------------------------------------|
D|--------5p0------------------5-------------5p0---------------5--7b--5~~-|
A|----/7-------7~~---7-------5----7~~----/7-------5~~-----5h7-------------|
E|-0--------------0-----0--5----------0----------------0------------------|

E|------------------------------------------------------------------------------|
B|------------------------------------------------------------------------------|
G|----------------------------------------------------x--7--7/9--9/12--12/11--9-|
D|--------5p0------------------5-------------5p0--------------------------------|
A|----/7-------7~~---7-------5----7~~----/7-------5~~-x--5--5/7--7/10--10/9---7-|
E|-0--------------0-----0--5----------0-----------------------------------------|

E|--------------------------------------------------------------------|
B|--------------------------------------------------------------------|
G|--------------------------------------------------------------------|
D|--------5p0------------------5-------------5p0----------------------|
A|----/7-------7~~---7-------5----7~~----/7-------7~~-----7------4--2-|
E|-0--------------0-----0--5----------0----------------0-----0h5----3-|

E|--------------------------------------------------------------------|
B|--------------------------------------------------------------------|
G|--------------------------------------------------------------------|
D|--------5p0------------------5-------------5p0----------------------|
A|----/7-------7~~---7-------5----7~~----/7-------7/5-----5-----5-----|
E|-0--------------0-----0--5----------0----------------3----3-2---2-0-|

Chorus:
Distorted
E|-------------------------------------------------|
B|-------------------------------------------------|
G|-9-9-x-9-9---7-7-x-7-7---7-7-x-7-7---9-9-x-9-9---|   Play Twice
D|-9-9-x-9-9---7-7-x-7-7---7-7-x-7-7---9-9-x-9-9---|     with:
A|-7-7-x-7-7---5-5-x-5-5---5-5-x-5-5---7-7-x-7-7---|
E|-------------------------------------------------|

Play Twice
E|--------------------------------------------------------------------------|
B|--------------------------------------------------------------------------|
G|----------12b~~----------------------------7-----------------------------| 
D|------12-----------------5--7b----------5-----7b~~------5--7b---7p5-------|
A|-/14-----------------/7-------------/7-------------------------------7~~~-|
E|--------------------------------------------------------------------------|

Then:
E|------------------------------------------------------------|
B|------------------------------------------------------------|
G|------------------------------------------------------------|
D|-/9--9--9-----/7--7--7-----/7--7--7--------------x--x--x----|
A|-/7--7--7-----/5--5--5-----/5--5--5-----7--7--7--x--x--x----|
E|----------------------------------------5--5--5--x--x--x----|

E|------------------------------------------------------------|
B|------------------------------------------------------------|
G|------------------------------------------------------------|
D|-/9--9--9-----/7--7--7-----/7--7--7-------------------------|
A|-/7--7--7-----/5--5--5-----/5--5--5-----7--7--7-------------|
E|----------------------------------------5--5--5--0--3~~~----|

E|------------------------------------------------------------|
B|------------------------------------------------------------|
G|------------------------------------------------------------|
D|-/9--9--9--9b--7--7--7-----/7--7--7-------------------------|
A|-/7--7--7------5--5--5-----/5--5--5-----7--7--7-------------|
E|----------------------------------------5--5--5--0--3~~~----|

E|---------------------------------------------------------------|
B|---------------------------------------------------------12b---|
G|---------------------------------------------------------12b---|   Continue
D|-/9--9--9------7--7/9--7~~--/7--7--7-----------------12--------|     with:
A|-/7--7--7------5------------/5--5--5-----7--7--7/14------------|
E|-----------------------------------------5--5--5---------------|

E|---------------------------------------------|
B|---------------------------------------------|
G|-----7--------------7------------------------|
D|-/9-----7~~------5-----7b~~--5--7b--7p5------|
A|-------------/7--------------------------7~~-|
E|---------------------------------------------|

E|------------------------------------------------------------|
B|------12--12b-----------------------------------------------|
G|------12--12b-------7--------------7------------------------|
D|----------------/9-----7~~------5-----7b~~--5--7b--7p5------|
A|-/14------------------------/7--------------------------7~~-|
E|------------------------------------------------------------|

Slow Middle Solo:
Clean 
E|--------------------------------------------------------------------------|
B|--------------------------------------------------------------------------|
G|-4/9--12\11/12\9--12\11/12\9--12\11/12/14--11/12\9--12\11/12\9--12\11/12\9|
D|--------------------------------------------------------------------------|
A|--------------------------------------------------------------------------|
E|--------------------------------------------------------------------------|

E|-------------|
B|-------------|
G|-12\11/12/14-|
D|-------------|
A|-------------|
E|-------------|

E|-10/12--15\14/15\12--15\14/15\12--15\14/15/17--14/15\12--15\14/15\12-|
B|---------------------------------------------------------------------|
G|---------------------------------------------------------------------|
D|---------------------------------------------------------------------|
A|---------------------------------------------------------------------|
E|---------------------------------------------------------------------|

E|-15\14/15\12--15\14/15/17--19///-------------------------------------|
B|---------------------------------------------------------------------|
G|---------------------------------------------------------------------|
D|---------------------------------------------------------------------|
A|---------------------------------------------------------------------|
E|---------------------------------------------------------------------|

Chorus:
Distorted
E|------------------------------------------------------------|
B|------------------------------------------------------------|
G|------------------------------------------------------------|
D|-/9--9--9-----/7--7--7-----/7--7--7--------------x--x--x----|
A|-/7--7--7-----/5--5--5-----/5--5--5-----7--7--7--x--x--x----|
E|----------------------------------------5--5--5--x--x--x----|

E|------------------------------------------------------------|
B|------------------------------------------------------------|
G|------------------------------------------------------------|
D|-/9--9--9-----/7--7--7-----/7--7--7-------------------------|
A|-/7--7--7-----/5--5--5-----/5--5--5-----7--7--7-------------|
E|----------------------------------------5--5--5--0--3~~~----|

E|------------------------------------------------------------|
B|------------------------------------------------------------|
G|------------------------------------------------------------|
D|-/9--9--9--9b--7--7--7-----/7--7--7-------------------------|
A|-/7--7--7------5--5--5-----/5--5--5-----7--7--7-------------|
E|----------------------------------------5--5--5--0--3~~~----|

E|---------------------------------------------------------------|
B|---------------------------------------------------------------|
G|---------------------------------------------------------------|
D|-/9--9--9--9b--7--7/9--7~~--/7--7--7---------------------2~~---|
A|-/7--7--7------5------------/5--5--5-----7--7--7---------2~~---|
E|-----------------------------------------5--5--5--0--3~--0~~---|

"I am the Beast..." part (4:47)
Distorted
E|----------------------------------------------------------------------|
B|----------------------------------------------------------------------|
G|----------------------------------------------------------------------|
D|-7h9-----9-----9-----9--------10p9--9~~~--9-----9-----9----------10p9-|
A|-7-------7-----7-----7---7h10-------7~~~--7-----7-----7-----7h10------|
E|-0---0-0-0-0-0-0-0-0-0-0------------------0-0-0-0-0-0-0-0-0-----------|
Play 4 Times

Chorus:
Distorted
E|-----------------------------------------------------------------|
B|------------------------------------------------------7b---------|
G|---------------------------------------------5-----5--7b--5------|
D|-/9--9--9-----/7--7--7-----/7--7--7----5--7-----7------------7---|
A|-/7--7--7-----/5--5--5-----/5--5--5------------------------------|
E|-----------------------------------------------------------------|

E|------------------------------------------------------------------|
B|------------------------------------------8b--8b--8b--------------|
G|---------------------------------------5--7b--7b--7b---7p5--------|
D|-/9--9--9-----/7--7--7-----/7--7----7-----------------------7~~---|
A|-/7--7--7-----/5--5--5-----/5--5----------------------------------|
E|------------------------------------------------------------------|

E|------------------------------------------------------------|
B|------------------------------------------------------------|
G|------------------------------------------------------------|
D|-/9--9--9--9b--7--7--7-----/7--7--7-------------------------|
A|-/7--7--7------5--5--5-----/5--5--5-----7--7--7-------------|
E|----------------------------------------5--5--5--0--3~~~----|

E|-----------------------------------------------------------|
B|-----------------------------------------------------------|
G|-----------------------------------------------------------|
D|-/9--9--9--9b--7--7/9--7~~--/7--7--7-----------------------|
A|-/7--7--7------5------------/5--5--5-----7--7--7-----------|
E|-----------------------------------------5--5--5--0--3~~~--|

Solo:
E|-----------------------------------------------------------
B|-----------------------------------------------------------
G|----12~----------14-12--------------------------------12b~-
D|-14-----12-14-14-------14-12~--14-14~-12-14-14~-14-12-12b~-
A|-----------------------------------------------------------
E|-----------------------------------------------------------

-------------------------------------------------------------------
-------------------------------------------------------------------
----------------14-12-------14b-12-----14b-12----------------------
14-14-12-14-14~-------14-12--------14~--------14-12----12h14-12----
----------------------------------------------------14----------14-
-------------------------------------------------------------------

E|-15-12----12-------------------------------------------------------------
B|-------15----15-12----12-------------------------------------------------
G|-------------------14----14-12----12-14b-14p12----12-14-12-------12------
D|-------------------------------14--------------14----------14-12----14~~-
A|-------------------------------------------------------------------------
E|-------------------------------------------------------------------------

E|-12h15p12----12-----12h15p12----12-----12h15p12----12-----
B|----------15----15b----------15----15b----------15----15b-
G|----------------------------------------------------------
D|----------------------------------------------------------
A|----------------------------------------------------------
E|----------------------------------------------------------

-----------------------------------------------
-15p12-12-12-15p12-12-12-15p12-12-12-15p12-----
-----------------------------------------------
-----------------------------------------------
-----------------------------------------------
-----------------------------------------------

E|----------------------------------------------------------
B|-12h15p12----12h15p12----12h15p12-12h15p12----12h15p12----
G|----------14----------14-------------------14----------14-
D|----------------------------------------------------------
A|----------------------------------------------------------
E|----------------------------------------------------------

------------------------------------------------
12h15p12-12h15p12----12h15p12-12h15p12--15b-15b-
------------------14----------------------------
------------------------------------------------
------------------------------------------------
------------------------------------------------

E|--------------------------------------
B|-12--14--15--14--12-14---14-15-14-12--
G|-12--14--15--14--12-14---14-15-14-12--
D|--------------------------------------
A|--------------------------------------
E|--------------------------------------

----------------------------------------------
15b~-15-12-------------15b~-15-12-------------
-----------14-12------------------14-12-------
-----------------14-12------------------14-12-
----------------------------------------------
----------------------------------------------

E|---------------------------------
B|-15b-15b-12-15b-12-15--15-12-15b-
G|---------12-----12-15--15-12-----
D|---------------------------------
A|---------------------------------
E|---------------------------------

E|----------------------------------------------------------------------
B|-----------------------------------------------15-12------------------
G|-9--9--9--12/14--12--14--12--11------12-14-14b-------14-14b-12----14b-
D|---------------------------------/14---------------------------14-----
A|-7--7--7--10/12--10--12--10--9----------------------------------------
E|----------------------------------------------------------------------

E|------------------------------------------------
B|------------------------------------------------
G|-9--9--9--12/14--12--14--12--11~/12-12/14-14/16-
D|------------------------------------------------
A|-7--7--7--10/12--10--12--10--9~~/10-10/12-12/14-
E|------------------------------------------------

-------------------------------------
-----------------------------14-12~~-
----12-14-14b-12----------12-14-12~~-
/14--------------14-12-14------------
-------------------------------------
-------------------------------------

Distorted still
E|--------------------------------------------------------------------|
B|--------------------------------------------------------------------|
G|--------------------------------------------------------------------|
D|--------5p0------------------5-------------5p0----------------------|
A|----/7-------7~~---7-------5----7~~----/7-------7~~-----7------4--2-|
E|-0--------------0-----0--5----------0----------------0-----0h5----3-|

E|--------------------------------------------------------------------|
B|--------------------------------------------------------------------|
G|--------------------------------------------------------------------|
D|--------5p0------------------5-------------5p0----------------------|
A|----/7-------7~~---7-------5----7~~----/7-------7/5-----5-----5-----|
E|-0--------------0-----0--5----------0----------------3----3-2---2-0-|

Clean
E|--------------------------------------------------------------------|
B|--------------------------------------------------------------------|
G|--------------------------------------------------------------------|
D|--------5p0------------------5-------------5p0----------------------|
A|----/7-------7~~---7-------5----7~~----/7-------7~~-----7------4--2-|
E|-0--------------0-----0--5----------0----------------0-----0h5----3-|


E|--------------------------------------------------------------------|
B|--------------------------------------------------------------------|
G|--------------------------------------------------------------------|
D|--------5p0------------------5-------------5h7--7b------------------|
A|----/7-------7~~---7-------5----7~~----/7--------------5-----5------|
E|-0--------------0-----0--5----------0---------------3----3-2---2-0--|


E|--------------------------------------------------------------------|
B|--------------------------------------------------------------------|
G|--------------------------------------------------------------------|
D|--------5p0------------------5-------------5p0----------------------|
A|----/7-------7~~---7-------5----7~~----/7-------7~~-----7------4--2-|
E|-0--------------0-----0--5----------0----------------0-----0h5----3-|


E|------------------------------------------------------------------------|
B|------------------------------------------------------------------------|
G|------------------------------------------------------------------------|
D|--------5p0------------------5-------------5p0---------------5--7b--5~~-|
A|----/7-------7~~---7-------5----7~~----/7-------5~~-----5h7-------------|
E|-0--------------0-----0--5----------0----------------0------------------|


E|--------------------------------------------------------------------|
B|--------------------------------------------------------------------|
G|--------------------------------------------------------------------|
D|--------5p0------------------5-------------5p0----------------------|
A|----/7-------7~~---7-------5----7~~----/7-------7~~-----7------4--2-|
E|-0--------------0-----0--5----------0----------------0-----0h5----3-|


E|--------------------------------------------------------------------|
B|--------------------------------------------------------------------|
G|--------------------------------------------------------------------|
D|--------5p0------------------5-------------5p0----------------------|
A|----/7-------7~~---7-------5----7~~----/7-------7/5-----5-----5-----|
E|-0--------------0-----0--5----------0----------------3----3-2---2-0-|




		     Metallica

                    Bleeding Me

    Words and Music by:Hetfield,Ulrich,and Hammett
               
	Transcribed by: Gabriele Moschetto
	   (update of Luis Soro's tab)

Intro:         Tune Guitars down 1/2 step

 Riff A
|--------------------|---------------------|-------------------|
|.-------------------|---------------------|-------------------|
|--------------------|---------------------|-------------------|
|----------5p-0------|---------------5-----|----------5p-0-----|
|.-----/7--------7~--|-----7------5-----7--|-----/7---------7--|
|---0----------------|--0----0--5----------|--0----------------|


|---------------------|--------------------|------------------------|
|---------------------|--------------------|------------------------|
|---------------------|--------------------|------------------------|
|---------------------|----------5p-0------|------------------5-----|
|---7\-------4--5\2---|------/7--------7~--|------7--------5-----7--|
|0-----0h-5-----4\3---|---0----------------|--0------0--5-----------|


|-------------------|----------------------|
|-------------------|---------------------.|
|-------------------|----------------------|
|---------5p-0------|----------------------|
|------/7-------5~--|------5-------5------.|
|--0----------------|--3-----3\-2-----2~---|


 Rhy Fig 1 (w/ Riff A)
 Slowly, let ring
|--0-----0-----|--0-----0-----|--0-----0-----|--0-----0-----|
|--8-----8-----|--8-----8--7--|--8-----8-----|--8-----8-----|
|--9-----9-----|--9-----9-----|--9-----9-----|--9-----9--7--|
|-----9-----9--|-----9--------|-----9-----9--|-----9--------|
|--------------|--------------|--------------|--------------|
|--------------|--------------|--------------|--------------|


                                               end Rhy Fig 1
|--0-----0-----|--0-----0-----|--0-----0-----|--0-----0-----|
|--8-----8-----|--8-----8--7--|--8-----8-----|--8-----8-----|
|--9-----9-----|--9-----9-----|--9-----9-----|--9-----9--7--|
|-----9-----9--|-----9--------|-----9-----9--|-----9-----7--|
|--------------|--------------|--------------|--------------|
|--------------|--------------|--------------|--------------|
                              |  Small variation of Riff A
                              |-----------------|---------------------|
                              |-----------------|---------------------|
                              |-----------------|---------------------|
                              |-------5h7-7/8\7-|---------------------|
                              |----/7-----------|------5-------5------|
                              |-0---------------|--3-----3\-2-----2~--|

 

Verse (w/ Riff A):
|-----------------------------12--------------------------------------7--|
|.----------------------------12----------------------------------8---7-.|
|-------------------------12-----------------------------------9------9--|
|---------------------14-------------------------------------------------|
|.----------------------------------------------------------------------.|
|------------------------------------------------------------------------|
I'm Diggin' My Way.........              I'm Diggin My Way to something...


|--------------------------------------------12---|
|.-------------------------------------------12--.|
|----------------------------------------12-------|
|------------------------------------14-----------|
|.-----------------------------------------------.|
|-------------------------------------------------|
I'm Diggin My Way to Something Better....

Other small variations of Riff A (listen to the song to see when they are played):
1st time:
|-------------------|---------------------|
|-------------------|---------------------|
|-------------------|---------------------|
|---------5p-0------|---------------------|
|------/7-------5~*-|-5--5/7--7/10---/7---|
|--0----------------|---------------------|

2nd time:
|-------------------|---------------------------|
|-------------------|---------------------------|
|-------------------|---------------------------|
|---------5p-0------|---------------------------|
|------/7-------5~*-|-5--5/7--7/10---/12\10---7-|
|--0----------------|---------------------------|

*= stop strings with right hand


Pre-Chorus 1:Guitar1
|-----------Full--------------------------------------------------------|
|-------------^----------------------------Full----Full-----------------|
|------------12-----------7--------------7--^--------^---p--------------|
|--------12-----------/9-----7--------5-----7--------7--7-5------h------|
|----14---------------------------/7-------------------------7--5-7-----|
|-----------------------------------------------------------------------|

Pre-chorus 1:Guitar2                Stop here on repeat and play 2nd part
|-----------------------------------------------------------------------|
|.----------------------------------8-----------------------8-----------|
|---------------------------7--7----7---7-----------7--7----7---7-------|
|--2--2--x--2---2----x--x---7--7-x--7---7----x--x---7--7-x--7---7--x--x-|
|.-2--2--x--2---2----x--x---5--5-x--5---5----x--x---5--5-x--5---5--x--x-|
|--0--0--x--0---0----x--x--------x-----------x--x--------x---------x--x-|

Skip this 2nd time|     (2nd part)Play second time:
|-----------------------|-----------------------------|
|----------------------.|-----------------------------|
|--2--2--x--2---2-------|--2--2-----2-----------------|
|--2--2--x--2---2-----5.|--2--2--x--2--2--------------|
|--0--0--x--0---0---7---|--0--0--x--0--2-----~~~~~~~--|
|-----------------------|--------x-----0---0--3-------|

Chorus:
|--------------------------------------------------------------------------|
|.------------------------------------------------------------------------.|
|-----------------------h-------------------h------------------------------|
|--/9---9---9\---x--5--5-7---7---7\--x--5--5-7---7--7\--x------h---------x-|
|.-/7---7---7\---x--5----7---5---5\--x--5----5---5--5\--x--5--5-7--7--7\-x.|
|----------------x-------------------x------------------x--5----5--5--5\-x-|

Every time except 1st,Play this after each chorus line:
|------------|
|------------|
|------------|
|------------|
|-----~~~~---|
|--0--3------|


Pre-chorus 1

Pre-chorus 2:
(with slide)
|-----------------------------------------------------------------------------|
|-----------------------------------------------------------------------------|
|-7--9------12-11-12---9-----12-11-12---9-----12-11-12---14------11--12----9--|
|-----------------------------------------------------------------------------|
|-----------------------------------------------------------------------------|
|-----------------------------------------------------------------------------|

|-----------------------------------------------------------10--12---|
|--------------------------------------------------------------------|
|---12-11-12---9-----12-11-12---9-----12-11-12---14------------------|
|--------------------------------------------------------------------|
|--------------------------------------------------------------------|
|--------------------------------------------------------------------|

|---15-14-15---12-----15-14-15---12-----15-14-15---17------14--15----12--|
|------------------------------------------------------------------------|
|------------------------------------------------------------------------|
|------------------------------------------------------------------------|
|------------------------------------------------------------------------|
|------------------------------------------------------------------------|

|---15-14-15---12-----15-14-15---12-----15-14-15---17------19--24--|
|------------------------------------------------------------------|
|------------------------------------------------------------------|
|------------------------------------------------------------------|
|------------------------------------------------------------------|
|------------------------------------------------------------------|

Chorus

Second Main Riff:
|----------------------------------------------------------|
|----------------------------------------------------------|
|---h--------------------------------------------p----h----|
|--7-9--------9----------9----------9-----h----10-9--7-9---|
|--7----------7----------7----------7----7-10----------7---|
|--0---0--0---0---0--0---0---0--0---0--0-------------------|
      pm....    pm....      pm...

*Here's That Kick Ass Solo!:
|--^------^----^----^----^------^--^-~~~~~~~~|----------------------------------|
|--5------8---10---12---15-----15-15---------|----------------------------------|
|--7-----10---12---14---17-----17-17---------|-------------12-12--------12------|
|-Full--Full-Full-Full-Up&Down---------------|-------------12-12------------12--|
|--------------------------------------------|-12-12-14-14--------14-~----------|
|--------------------------------------------|----------------------------------|
*Only bend bottoms Notes Full                  pm.........|


|-------------------------------|---------------------------|
|-------------------------------|---------------------------|
|----h----------14--12----------|--x--x-x-------------------|
|-(12)14--14-~----------14--12--|--x--x-x-12--14-~---14-12--|
|-------------------------------|---------------------------|
|-------------------------------|---------------------------|


|-----------------------1/4---|---------------------------|----------------------|
|------------------------^----|-------1/2-----------------|----------------------|
|-----------------------12----|-x--x---^---------12-------|----------------14----|
|-(12)--14--14--14--12--12----|-x--x--12---14-~--14--12-~-|-(12)--14--14-~-14----|
|-----------------------------|---------------------------|-------------------12-|
|--------------------------12-|---------------------------|----------------------|


|---------------^-----------------^--|-------------------------------|
|--------------14-------------x--14--|--12---------------------------|
|-12-------x---14---12--------x--14--|--12-------------h-------------|
|----14-~--x---1/2-----14-~------1/2-|-----14--12----12-14-~--12-----|
|------------------------------------|------------14-------------14--|
|------------------------------------|-------------------------------|
 
 
|-15--12----12---------------------------Full------|
|--------15----15--12----12----------------^-------|
|---------------------14----14--12----12--14-~-~---|
|----------------------------------14---Hold Bend--|
|--------------------------------------------------|
|--------------------------------------------------|

 
|--------------------------------------------------------|
|---------------------p----------------------------------|
|-14-(Bring-Down-Here)-14----12--14----------12----------|
|-------------------------14----------14--12-----14-~-~--|
|--------------------------------------------------------|
|--------------------------------------------------------|
 
 
     h  p
|--12-15-12---12--^----12----------^--12---p----|
|----------15----15-~-----15--12--15-----15-12--|
|---------------Full-------------Full-----------|
|-----------------------------------------------|
|-----------------------------------------------|
|-----------------------------------------------|


|---^--12---p-------------p--------------p--------------p----|
|--15-----15-12--12--12-15-12--12--12--15-12--12--12--15-12--|
|------------------------------------------------------------|
|------------------------------------------------------------|
|------------------------------------------------------------|
|------------------------------------------------------------|


|----------p--------h--p--------h--p-----p------h--p--------h--p----|
|-----12-15-12----12-15-12----12-15-12-15-12--12-15-12----12-15-12--|
|--14----------14----------14---------------14---------14-----------|
|-------------------------------------------------------------------|
|-------------------------------------------------------------------|
|-------------------------------------------------------------------|


                                                   Tremolo Pick this part
|------h--p--------h--p--------p-----^------^--|----------15------------|
|----12-15-12-12-12-15-12----15-12--15-----15--|--12--14--15------------|
|-14----------------------14-------Full---Full-|--12--14--15--14--------|
|----------------------------------------------|------------------------|
|----------------------------------------------|------------------------|
|----------------------------------------------|------------------------|


|---------------------------|----^-----------------------------|
|--12---14--14--15--14--12--|---15-~---15--12------------------|
|--12---14--14--15--14--12--|--Full-----------14--12-----------|
|---------------------------|------------------------14--12-~--|
|---------------------------|----------------------------------|
|---------------------------|----------------------------------|
 
 
|---^-------------------------|---^-----^------^---|-----^--------------^--|
|--15--15--12-----------------|--15----15-----15---|-0--15---0--12-----15--|
|-Full--------14--12----------|-Full---Full---Full-|-0-Full--0--12----Full-|
|--------------------14--12-~-|--------------------|---------------14------|
|-----------------------------|--------------------|-----------------------|
|-----------------------------|--------------------|-----------------------|
 
 
Half Time Feel:
|-------------------------|----------------------------------|
|-------------------------|----------------------------------|
|---h----------12--12/14--|--(14)--12--12--12/14----12--11---|
|--7-9--9--9--------------|----------------------------------|
|----7--7--7---10--10/12--|--(12)--10--10--10/12----10--9----|
|-------------------------|----------------------------------|


|--------------------^--------------|-------------------------------|
|---------------14--14------p-------|------^--15--12--^-------------|
|-(11)\-----12--14--14----14-12-----|-12--14---------14----12-------|
|-------/14--------1/2----------14--|----Full------Up&Down----14-~--|
|-(9)\------------------------------|-------------------------------|
|-----------------------------------|-------------------------------|


|-------------------------|---------------------------------|
|-------------------------|---------------------------------|
|--------9---9--12-12/14--|--(14)--12--12/14----12--11-~-~--|
|-(14)\-------------------|---------------------------------|
|--------7---7--10-10/12--|--(12)--10--10/12----10---9-~-~--|
|-------------------------|---------------------------------|


|-----------------------------|----------^---------------------|---------------|
|-----------------------------|-12--14--14-----------------^---|-12------------|
|--/12--12/14--14/16----------|-12--14--14----14--12------14---|-12--(12)\-----|
|---------------------12--14--|---------Full---------14--Full--|---------------|
|--/10--10/12--12/14----------|--------------------------------|---------------|
|-----------------------------|--------------------------------|---------------|



Riff A distorted

Riff A

Verse

Other small variation of Riff A:
|------------------|------------------|
|------------------|------------------|
|------------------|----------^-------|
|---------5p-0-----|-------5--7----5--|
|------/7-------7~-|-5--7----Full-----|
|--0---------------|------------------|
                          Bend&Release

End