METALLICA - BLACKENED

INTRO
E|-14-15h17p15-17b(18)r(17)-17b(18)r(17)-17\15-15-17\15-15-9\7-7------------| 
B|-16-17h19p17-19b(20)r(19)-19b(20)r(19)-19\17-17-19\17-17-------12\10|7----| 
G|--------------------------------------------------------------------------| 
D|--------------------------------------------------------11\9-9------------| 
A|--------------------------------------------------------------------------| 
E|--------------------------------------------------------------------------|

E|-------------------------------------------------------------------| 
B|-8-10|7-12-10|7\8|5-8|5-10|7\8|5-8|5-/12-12-12-12\10|7-8-10|7-12|8-| 
G|-9-------9---------------------------------------------9-----------| 
D|---------------------------------------9-10--9---------------------| 
A|-------------------------------------------------------------------| 
E|-------------------------------------------------------------------| 

E|----------------------------------------------------------------------| 
B|-10|7\8|5-8|5-10|7\8|5-8|5-\0-4-5h7p5-7-(7)b(8)r(7)-10|7\5-5-10|7\5-5-| 
G|----------------------------------------------------------------------| 
D|----------------------------------------------------------------------| 
A|----------------------------------------------------------------------| 
E|----------------------------------------------------------------------| 

E|-----------------| 
B|-----------------|
G|-----------------|
D|-2-------------2-| 
A|---------3-4-5---| 
E|---2-3-4---------| 

    PM    PM    PM           PM    PM        PM    PM    PM
e|----------------------------------------------------------------------------------
B|----------------------------------------------------------------------------------
G|----------------------------------------------------------------------------------
D|----------------------------------------8-----------------------------------------
A|------7-----7-----7---8--7-----7-----7-----7-----7-----7-----7---8--7\------------
E|---0-----0-----0------------0-----0-----------0-----0-----0-----------------------

       PM---------------|
e|------------------------|-------|-------------------------------------------------
B|------------------------|-------|-------------------------------------------------
G|------------------------|-------|-------------------------------------------------
D|--3---------------------|---x3--|-------------------------------------------------
A|--1---------2--3--3-----|-------|-------------------------------------------------
E|------2--3-----------1--|-------|-------------------------------------------------

    PM    PM    PM           PM    PM        PM    PM    PM
e|----------------------------------------------------------------------------------
B|----------------------------------------------------------------------------------
G|----------------------------------------------------------------------------------
D|----------------------------------------8-----------------------------------------
A|------7-----7-----7---8--7-----7-----7-----7----7-----7-----7---8--7\-------------
E|---0-----0-----0------------0-----0----------0-----0-----0------------------------





   PM---------------|       PM---------------|
e|----------------------------------------------------------------------------------
B|----------------------------------------------------------------------------------
G|----------------------------------------------------------------------------------
D|----------------------------------------------------------------------------------
A|--5--5--5-----4--4---------5--5--5-----4--4---------------------------------------
E|--3--3--3--0--2--2---------3--3--3--0--2--2---------------------------------------


    PM    PM    PM           PM    PM        PM    PM    PM
e|----------------------------------------------------------------------------------
B|----------------------------------------------------------------------------------
G|----------------------------------------------------------------------------------
D|----------------------------------------8-----------------------------------------
A|------7-----7-----7---8--7-----7-----7-----7----7-----7-----7---8--7\-------------
E|---0-----0-----0------------0-----0----------0-----0-----0------------------------


       PM---------------|
e|------------------------|-------|-------------------------------------------------
B|------------------------|-------|-------------------------------------------------
G|------------------------|-------|-------------------------------------------------
D|--3---------------------|---x3--|-------------------------------------------------
A|--1---------2--3--3-----|-------|-------------------------------------------------
E|------2--3-----------1--|-------|-------------------------------------------------


Verse:

       PM------------|                 
e|---------------------------------------|------|-----------------------------------
B|---------------------------------------|------|-----------------------------------
G|---------------------------------------|------|-----------------------------------
D|----------------------3----------------|---%--|-----------------------------------
A|---2--2--2--2--2--2---1--------2p1-----|------|-----------------------------------
E|---0--0--0--0--0--0------2--3-------3--|------|-----------------------------------

       PM----------|                        PM------------|
e|----------------------------------------------------------------------------------
B|----------------------------------------------------------------------------------
G|------------------------3---------------------------------------------------------
D|------------------------3------------------------------------3--------------------
A|---2--2--2--2--2----2---1--------1--4--5---5--5--5--5--5--0--1--------2p1---------
E|---0--0--0--0--0----0------2--3-----2--3---3--3--3--3--3--------2--3-------3------

Chorus:
            PM---|      PM---|    PM---|                 PM---|       PM---|
e|----------------------------------------------------------------------------------
B|----------------------------------------------------------------------------------
G|---9------------------------------------------------------------------------------
D|---9--------------7----------5----------------------------------------------------
A|---7-------7--7---5---5--5---3---5--5-----4-------------5-5-5--------5-5-5--------
E|-----------5--5-------3--3-------3--3-----2-------------3-3-3--------3-3-3--------

     Fire!   to begin whipping dance of the deaaad        blackened    is the

           PM---|      PM--------------|               PM---------------|
e|----------------------------------------------------------------------------------
B|----------------------------------------------------------------------------------
G|----------------------------------------------------------------------------------
D|---2--------------7----------5--5-------------------------------------------------
A|---2-------7--7---5---5--5---3--3---5---4-------------5--5--5-----4--4------------
E|---0-------5--5-------3--3----------3---2-------------3--3--3--0--2--2------------

     End!


2nd Riff:
Play this until he starts singing:

               PM---------|            PM------------|         PM---------|
e|----------------------------------------------------------------------------------
B|----------------------------------------------------------------------------------
G|-------------------------------------------------------------------------------8--
D|-------------------------------------------------------------------------------8--
A|-----------7--------------------8--7--------------------6--7--------------/6---6--
E|--0--5--6-----0--0--0--0--5--6--------0--0--0--0--0--5--------0--0--0--0--/6------


        PM------|         PM------|         PM------|
e|----------------------------------------------------------------------------------
B|----------------------------------------------------------------------------------
G|----------------------------------------------------------8-----------------------
D|----------------------------------------------------------8-----------------------
A|--2----2--2--2---2---2---2--2--2---2---2---2--2--2---/6---6-----------------------
E|--0----0--0--0---0---0---0--0--0---0---0---0--0--0---/6---------------------------


        PM------|         PM------|         PM------|
e|----------------------------------------------------------------------------------
B|----------------------------------------------------------------------------------
G|-----------------------------------------------------------8----------------------
D|-----------------------------------------------------------8----------------------
A|--2----2--2--2---2---2---2--2--2---2---2---2--2--2----/6---6----------------------
E|--0----0--0--0---0---0---0--0--0---0---0---0--0--0----/6--------------------------

        PM------|         PM------|         PM------|
e|----------------------------------------------------------------------------------
B|----------------------------------------------------------------------------------
G|-----------------------------------------------------------8----------------------
D|-----------------------------------------------------------8----------------------
A|--4----4--4--4---4---4---4--4--4---4---4---4--4--4----/6---6----------------------
E|--2----2--2--2---2---2---2--2--2---2---2---2--2--2----/6--------------------------

Interlude:

              PM       PM                    PM       PM       PM
e|----------------------------------------------------------------------------------
B|----------------------------------------------------------------------------------
G|-----------------------------------------------------------4--------4--5--4h5p4/2-
D|-------4--5-----4--5-----4--5--7--5h7p5p4------4--5-----7-----5--7----------------
A|---/7--------7--------7---------------------7--------7----------------------------
E|----------------------------------------------------------------------------------

                     PM        PM                      PM        PM
e|----------------------------------------------------------------------------------
B|----------------------------------------------------------------------------------
G|-------------------------------------------------------------------7--9-----------
D|--4--4-------7--9------7--9------7--9--10--9h10p9p7------7--9---------------------
A|--------/10--------10--------10----------------------10--------10-----------------
E|----------------------------------------------------------------------------------





    PM
e|----------------------------------------------------------------------------------
B|----------------------------------------------------------------------------------
G|------7--9--11--9h11p9/7----------------------------------------------------------
D|---9-------------------------7----------------------------------------------------
A|--------------------------9-------------------------------------------------------
E|----------------------------------------------------------------------------------


Solo:    (good luck)


e|---------------------------------------------7--8--8--7------7--------------------
B|------7--8-----7--8-----7--8-----7--8-----7--------------10-----10-8-10-8-7-8-7---
G|---9--------9--------9--------9--------9------------------------------------------
D|----------------------------------------------------------------------------------
A|----------------------------------------------------------------------------------
E|----------------------------------------------------------------------------------


e|----------------------------------------------------------7-9-7h9p7-----7-9-10-12-
B|----7----------------------------------7-8-7h8p7---7-8-11-----------11------------
G|--9---9-7-9-7-6-7-6------6h7p6---6-7-9-----------9--------------------------------
D|--------------------7-9--------9--------------------------------------------------
A|----------------------------------------------------------------------------------
E|----------------------------------------------------------------------------------


e|--12-10-9-7----7-9-10-12-9-t19p12-t10p10-t19p10p9-t18p10-t18p10-t18p8p7-----------
B|------------11----------------------------------------------------------t17p8-----
G|----------------------------------------------------------------------------------
D|----------------------------------------------------------------------------------
A|----------------------------------------------------------------------------------
E|----------------------------------------------------------------------------------


e|-------------------------------------------------------------------12^-12^--------
B|--t17p7-t17p7p5-t17p8-t17p7-t17p7p5-t17p8p7-t17p8p7-t17p8p7p5/3/5-----------------
G|----------------------------------------------------------------------------------
D|----------------------------------------------------------------------------------
A|----------------------------------------------------------------------------------
E|----------------------------------------------------------------------------------

e|--10-12-10h12p10-9-10-9-10-9-7-6-19^-19^-18-15-14-15-15p14-15p14--/12-14-18-14-12-
B|----------------------------------------------------------------------------------
G|----------------------------------------------------------------------------------
D|----------------------------------------------------------------------------------
A|----------------------------------------------------------------------------------
E|----------------------------------------------------------------------------------

e|--18-14-12-18-14-12-18-14-12-18-14-12-18-14-12-17-13p12-15--18-14-12-18-14-12-----
B|----------------------------------------------------------------------------------
G|----------------------------------------------------------------------------------
D|----------------------------------------------------------------------------------
A|----------------------------------------------------------------------------------
E|----------------------------------------------------------------------------------

e|--18-14-12-18-14-12-19------------------------------------------------------------
B|----------------------------------------------------------------------------------
G|----------------------------------------------------------------------------------
D|-----------------------------------------------------------------3--3-------------
A|------------------------------5-5-5---4-4------5-5-5---4-4-------3--3-------------
E|------------------------------3-3-3-0-2-2------3-3-3-0-2-2-------1--1-------------

    ~~~~~~~~~~~~
e|------------------/18-19-24-22-20-19-23-21-19-17-20-19-17-15-19-17-15-14-14-17----
B|--13^-----------------------------------------------------------------------------
G|--13^-----------------------------------------------------------------------------
D|----------------------------------------------------------------------------------
A|----------------------------------------------------------------------------------
E|----------------------------------------------------------------------------------


e|--17p15-14-12-11-12-15-14-12-10-9-10-9-10-14-12-10-9-8-9-12-10-8-7----------------
B|--------------------------------------------------------------------10^--10^------
G|----------------------------------------------------------------------------------
D|----------------------------------------------------------------------------------
A|----------------------------------------------------------------------------------
E|----------------------------------------------------------------------------------

                                        ok, does he do harmonics here on
                                        that B string or what??
                                             |   |
                                             |   |
e|----------------------------------------------------------------------------------
B|--12p10-8-7---7-8-7---7----------7---------0---0-----------0-\/--12---------------
G|------------9-------9---9-7-9--7---9-7---9---7---2---------------12-----7h9-7-----
D|---------------------------------------9-----------4-2-0---------12-----------10--
A|----------------------------------------------------------------------------------
E|----------------------------------------------------------------------------------

e|----------------------------------7h8p7----7-8-8h10h12-12-10-8-7------------7-----
B|-------------------7-8-7---7-8-10-------10----------------------------------------
G|--5h7-5-4-5-4---/9-------9----------------------------------------9-7--7-5--------
D|--------------4---------------------------------------------------9-7--7-5--------
A|----------------------------------------------------------------------------------
E|----------------------------------------------------------------------------------

            Harm.
e|----------------------------------------------------------------------------------
B|--10p8-7--5---\/------------------------------------------------------------------
G|----------5---\/--12p0-12p0-12p0-12p0-12p0-12p0-11p0-11p0-9p0-9p0-9p0-9p0-9p0-9p0-
D|----------------------------------------------------------------------------------
A|----------------------------------------------------------------------------------
E|----------------------------------------------------------------------------------

e|----------------------------------------------------------------------------------
B|----------------------------------------------------------------------------------
G|--9p0-9p0-16p0-16p0-16p0-16p0-16p0-16p0-14p0-14p0-12p0-12p0-12p0-12p0-12p0-12p0---
D|----------------------------------------------------------------------------------
A|----------------------------------------------------------------------------------
E|----------------------------------------------------------------------------------

e|----------------------------------------------------------------------------------
B|----------------------------------------------------------------------------------
G|--12p0-12p0-2p0-2p0-2h4p0-4p0-5p0-5p0-4p0-4p0-5p0-5p0-7p0-7p0-9p0-9p0-9p0-9p0-----
D|----------------------------------------------------------------------------------
A|----------------------------------------------------------------------------------
E|----------------------------------------------------------------------------------

e|----------------------------------------------------------------------------------
B|----------------------------------------------------------------------------------
G|--(5)--\/--\/--\/-----------------------------------------------------------------
D|--(5)--\/--\/--\/-----------------------------------------------------------------
A|----------------------------------------------------------------------------------
E|----------------------------------------------------------------------------------