Black Album Book
            .-/                                    ~=-._
         .-~ /   ____  ______ __  _    _     _   ____|  ~-._
        ~~/  -~||  __||_  __//  || |  | |   | | / __/| .\~~
         / . . ||  __| | |  / ' || |__| |__ | || (__ |   \
        / / ~| ||____| |_| /_/|_||____|____||_| \___\| |\ \
       / /   |-~                                     ~-| \ \
      / /__            "Metallica" TAB Book             __\ \
     /  .-~                 Compiled by                 ~-.  \
    /.-~                    Andrew Bowie                   ~-.\
   /~                       Version 1.01                      ~\

                   Last Updated : 27th October 1996
          Email for corrections : bowie@yoyo.cc.monash.edu.au
    Web Page for latest version : http://www.monash.edu.au/~abow3

                        Struggle Within HERE!

------------------------------------------------------------------------------
------------------------------------------------------------------------------

Contents....
1.  Enter Sandman        : UNKNOWN
2.  Sad But Ture         : Vassilis Tzerpos
3.  Holier Than Thou     : tscott@plains.nodak.edu
4.  The Unforgiven       : Tuomo Eloranta (telorant@vipu.hut.fi)
5.  Wherever I May Roam  : UNKNOWN
6.  Don't Tred On Me     : Kevin Buffington (klb6222@tam2000.tamu.edu)
7.  Through The Never    : Jay Sharma (Leper.Messiah@NJackN.com)
8.  Nothing Else Matters : Martijn van Welie (mwelie@cs.vu.nl)
9.  Of Wolf And Man      : A. Stefanos 
10. The God That Failed  : Andrew Bowie (bowie@yoyo.cc.monash.edu.au)
11. My Friend In Misery  : Andrew Bowie (bowie@yoyo.cc.monash.edu.au)
12. The Struggle Within  : Pavel Holka (Xholp10@st.vse.cz)

------------------------------------------------------------------------------
---------------------------     MetallicA     --------------------------------
Enter Sandman
-------------
Intro:   (Play 12 times)
======

1|---------------------------------------------------------------------------
2|---------------------------------------------------------------------------
3|---------------------------------------------------------------------------
4|------------5--------------------------------------------------------------
5|--------7---------------7--------------------------------------------------
6|----0-----------6---5------------------------------------------------------

Rhythm Fill 1:
==============

   E5

        PM------------------|   sl   PM----------------------|  sl

1|---------------------------------------------------------------------------
2|---------------------------------------------------------------------------
3|---------------------------------------------------------------------------
4|---------------------------------------------------------------------------
5|--2---------------------------/7------------------------------/7-----------
6|--0---0---0---0---0---0---0--------0---0---0---0---0---0---0---------------

                                     |-------------3x------------|

                              F5 E5                              *F5 E5

    PM--|          PM------|    P      PM--|               PM--|     P

1|---------------------------------------------------------------------------
2|---------------------------------------------------------------------------
3|---------------------------------------------------------------------------
4|---------------------------------------------------------------------------
5|----------7------------------3\2-------------7-------------------3\2-------
6|--0---0------6---0---0---0---1\0-----0---0-------6---5---0---0---1\0-------

    |-------------4x-------------|     |--------------8x-------------|

                 When playing the F5-E5 pulloffs, the E5 is not strummed.
                          * Skip the F5-E5 pulloff on the 8th repetition.


Rhythm Fill 2:
==============

   E5                        G5  E5  G5  E5 F#5  G5 F#5

             sl       V          PM------------------|

1|---------------------------------------------------------------------------
2|---------------------------------------------------------------------------
3|---------------------------------------------------------------------------
4|---------------------------------------------------------------------------
5|--2---2----/7--------------5-------5-------4---5---4-----------------------
6|--0---0---------6---5------3---0---3---0---2---3---2-----------------------

    |-------3x--------|

(Repeat Rhythm Fill 2 once)

Rhythm Fill 3:
==============

    E5                          F5 E5                              F5 E5

        PM------------------|     P    PM-----------------------|   P

1|---------------------------------------------------------------------------
2|---------------------------------------------------------------------------
3|---------------------------------------------------------------------------
4|---------------------------------------------------------------------------
5|--2----------------------------3\2-------------------------------3\2-------
6|--0---0---0---0---0---0---0----1\0---0---0---0---0---0---0---0---1\0-------

   E5                              G5  E5  G5  E5 F#5  G5 F#5


    PM----------------------|          PM-----------|

1|---------------------------------------------------------------------------
2|---------------------------------------------------------------------------
3|---------------------------------------------------------------------------
4|---------------------------------------------------------------------------
5|---------------------------------5-------5-------4---5---4-----------------
6|--0---0---0---0---0---0---0------3---0---3---0---2---3---2-----------------


Say your prayers, little one
Don't forget, my son
To include everyone

(Repeat Rhythm Fill 3 once)

Tuck you in, warm within
Keep you free from sin
Till the sandman comes

Bridge:
=======

                          F#5                  E5  F5  F#5

                           PM--------------------------|

1|---------------------|-----------------------------------------------------
2|---------------------|-----------------------------------------------------
3|---------2-----------|-----------------------------------------------------
4|-----4---------------|-----------------------------------------------------
5|-------------3---2---|---4---4---4---4---4---2---3---4---------------------
6|--2------------------|---2---2---2---2---2---0---1---2---------------------

    |------3x------|

Sleep with one eye open
Gripping your pillow tight

Chorus Fill:
============

  F#5  C5  B5    F#5  C5  B5   F#5  C5  B5  E5

                                                 PM-----------|

1|---------------------------------------------------------------------------
2|---------------------------------------------------------------------------
3|----------------------------------------------------------------2----------
4|------5---4---------5---4---------5---4---------5---2---5---2-------2------
5|--4---3---2-----4---3---2-----4---3---2----2-------------------------------
6|--2-------------2-------------2------------0-------------------------------

Exit light
Enter night

  F#5  C5  B5   E5                            G5              F5  G5

                      PM----------|            PM----------|

1|---------------------------------------------------------------------------
2|---------------------------------------------------------------------------
3|------------------------------------2--------------------------------------
4|------5---4---------5---2---5---2-------2----------------------------------
5|--4---3---2-----2----------------------------5-------5-------4---5---5-----
6|--2-------------0----------------------------3---0---3---0---2---3---3-----


Take my hand
We're off to never never land

(Repeat Rhythm Fill 2 twice)

Something's wrong, shut the light
Heavy thoughts tonight
And they aren't of Snow White
Dreams of War, dreams of lies
Dreams of dragon's fire
And of things that will bite, yeah!

(Repeat Bridge)

Sleep with one eye open
Gripping you pillow tight

(Repeat Chorus Fill)

Exit light
Enter night
Take my hand
Off to never-never land

Solo
         N.C.         E5                N.C.                  E5
               1/4
e:----------------------------|-------------------------------------|
B:-15-15-15-12-----12---------|------12-12----15b(17)-15b(17)-(15)/-|
G:-------------14b----14b(16)-|-(14)-------14-----------------------|
D:----------------------------|-------------------------------------|
A:----------------------------|-------------------------------------|
E:----------------------------|-------------------------------------|
                                                    
               N.C.                          G5

e:-------------------------------------------------|
B:-------------------------------------------------|
G:-12/14-14-14-14\12-12-12-12/14-14-14-14\12-12-12-|
D:-------------------------------------------------|
A:-------------------------------------------------|
E:-------------------------------------------------|
                                        
            F#5            G5 F#5 E5
                              ~~~~~~
e:-------------------------------------|
B:-------------------------------------|
G:-14p12-------------------------------|
D:-------14-14p12----------------------|
A:----------------14-14p12/10----------|
E:----------------------------12-(12)/-|

                    N.C.                                         E5

e:---------12-12-12---------12-12-12---------12-12-12---------12-12-12-|
B:-15b(17)----------15b(17)----------15b(17)----------15b(17)----------|
G:---------------------------------------------------------------------|
D:---------------------------------------------------------------------|
A:---------------------------------------------------------------------|
E:---------------------------------------------------------------------|

                    N.C.                                E5

e:---------12-12-12h15p12-12h15p12-12h15p12-12-15-12-12-14-14-|
B:-15b(17)----------------------------------------------------|
G:------------------------------------------------------------|
D:------------------------------------------------------------|
A:------------------------------------------------------------|
E:------------------------------------------------------------|
                                                    
              N.C.                            G5

e:-17p14----17p14----17p14-19p15----19p15----19p15-|
B:-------15-------15-------------17-------17-------|
G:-------------------------------------------------|
D:-------------------------------------------------|
A:-------------------------------------------------|
E:-------------------------------------------------|

                                                     Half-Time Feel
              F#5                 G5  F#5   N.C.
                              ~~~~~~~~~~
e:-21p17----21p17----21p17----22b(24)-(22)/--------|------------------|
B:-------17-------17-------17---------------9b(10)-|-(9)---9b(10)---9-|
G:------------------------------------------9b(11)-|-(9)---9b(11)---9-|
D:-------------------------------------------------|------------------|
A:-------------------------------------------------|------------------|
E:-------------------------------------------------|------------------|

                      ~~~~~            ~~~~~~~~
e:-----------------------------------|------------------------------------|
B:-9b(10)--9b(10)-----------------10-|-(10)----10-8-7---7/8\7---7---------|
G:-9b(11)--9b(11)--7--9--------7-----|----------------9-------9---9-7---7-|
D:------------------------7h9--------|--------------------------------9---|
A:-----------------------------------|------------------------------------|
E:-----------------------------------|------------------------------------|

                      End HTF
                                 F#5               B5            F#5
                                                            ~~~~~
e:-----------------------------|---------------------------------------|
B:-----------------------------|---------------------------------------|
G:-9p7-------------------------|-16b(18)-14-----14-16b(18)--14------14-|
D:-----9p7---7-9-7-------------|------------16------------------16-----|
A:---------9-------9-6-7-------|---------------------------------------|
E:-----------------------10-7\-|---------------------------------------|
                                         
                     B5            F#5

e:--------------------------------------|
B:--------------------------------------|
G:-16b(18)-14----14-16b(18)-14-------14-|
D:------------16---------------16-16----|
A:--------------------------------------|
E:--------------------------------------|

                                 B5        E5       Grad. Trem.
                                                      Release
e:------------------------------------------------|------------|
B:---------17---------17---------------17---------|------------|
G:-16b(18)----16b(18)----16b(18)----------16b(18)-|-(16)-------|
D:------------------------------------------------|------------|
A:------------------------------------------------|------------|
E:------------------------------------------------|------------|
                                                          
   F#5                        B5                E5

e:-21p17----21p17----21p17----21p17----21p17----21p17----|
B:-------17-------17-------17-------17-------17-------17-|
G:-------------------------------------------------------|
D:-------------------------------------------------------|
A:-------------------------------------------------------|
E:-------------------------------------------------------|

                                  ~~~~~~~~~~~~~~
e:-22b(24)--22-22--22b(24)--22-22-22b(24)-------(22)\-|
B:----------------------------------------------------|
G:----------------------------------------------------|
D:----------------------------------------------------|
A:----------------------------------------------------|
E:----------------------------------------------------|

   E5
                                        ~~~~trem~~~~
e:-----------------------------|-------------------------|
B:-10p8p7----------------------|-------------------------|
G:--------9-9p7----------------|-------------------------|
D:--------------9-9p7-5--7b(9)-|-5-----------------------|
A:-----------------------------|----7---(7)----------5h7-|
E:-----------------------------|-------------------------|

       ~~~~~~~trem~~~~~~~
e:--------------------------|
B:--------------------------|
G:--------------------------|
D:--------------------------|
A:-4---(4)----------------0-|
E:--------------------------|

(Repeat Rhythm Fill 2 twice)
(Repeat Bridge)
(Repeat Chorus Fill)
(Repeat Intro 8 times)

Now I lay me down to sleep
Pray the lord my soul to keep
If I die before I wake
Pray the lord my soul to take

(Repeat Bridge, 1st measure only, 6 times)

Hush little baby, don't say a word
And never mind that noise you heard
It's just the beasts under your bed,
In your closet, in your head

(Repeat Chorus Fill twice)

Exit light
Enter night
Take my hand
Off to never-never land

(Repeat Rhythm Fill 2 twice)

BOOM!

(Repeat Rhythm Fill 2 4 times)

Outro:
======

   E5                          F5 E5                           F5 E5

        PM              PM--|    P    PM---------------------|    P

1|---------------------------------------------------------------------------
2|---------------------------------------------------------------------------
3|---------------------------------------------------------------------------
4|---------------------------------------------------------------------------
5|--2-------7-------------------3\2-----------7------------------3\2---------
6|--0---0-------6---5---0---0---1\0---0---0------6---5---0---0---1\0---------

                                      |-------------3x-------------|

                              F5 E5

    PM--|          PM------|    P      PM--------------------------|
1|---------------------------------------------------------------------------
2|---------------------------------------------------------------------------
3|---------------------------------------------------------------------------
4|---------------------------------------------------------------------------
5|----------7------------------3\2-------------7-----------------------------
6|--0---0------6---0---0---0---1\0-----0---0-------0---0---0---0---0---------

    |------------4x--------------|     |------------4x-------------|

    PM------------------------------|

1|---------------------------------------------------------------------------
2|---------------------------------------------------------------------------
3|---------------------------------------------------------------------------
4|---------------------------------------------------------------------------
5|---------------------------------------------------------------------------
6|--0---0---0---0---0---0---0---0---0----------------------------------------

    |--- Repeat while fading out ---|

---------------------------     MetallicA     --------------------------------
Sad But True
------------
Tabbed by Vassilis Tzerpos

Key:
s = slide                      p = pull-off
__3__ = Triplets               h = hammer-on
^ = bend                       r = release bend
x = damped string              % = repeat last measure
/ = slide up to the note indicated from a few frets below
\ = slide back a few frets from the note indicated 
* = slide to the above or below indicated note from as many frets below 
as the number of stars

Tune guitar one whole step down.

--------------------------------I--------------------------------I
--------------------------------I--------------------------------I
2-------------------2---2---2---I3-----------------------3-------I
2-------------------2---2---2---I3-----------------------3-------I
0-------------------0---0---0---I1-----------------------1-------I
--------------------------------I--------------------------------I

--------------------------------I--------------------------------I
--------------------------------I--------------------------------I
2-------------------------------I--------------------------------I
2------------------/7---6---5---I3-5-3-5-3-5-353535353535--------I
0-------------------------------I------------------------x\------I
--------------------------------I--------------------------------I

--------------------------------I--------------------------------I
--------------------------------I--------------------------------I
2-------------------2---2---2---I3-----------------------3-------I
2-------------------2---2---2---I3-----------------------3-------I
0-------------------0---0---0---I1-----------------------1-------I
--------------------------------I--------------------------------I

--------------------------------I----         -------------------I
--------------------------------I----         -------------------I
2-------------------------------I5---         -------------------I
2------------------/7---6---5---I3---         -------------------I
0-------------------------------I----         -------x---x-x-x-x-I
--------------------------------I----         -------------------I

--------------------------------I   I   I--------------------------------I
--------------------------------I   I   I--------------------------------I
--------------------------------I % I % I--------------------------------I 4%
--------------------------------I   I   I--------------------------------I
2-----------2---2---5p0-1p0-----I   I   I2-----------2---2---5p0-5-5-----I
0-----------0---0-----------3p0-I   I   I0-----------0---0---------------I

--------------------------------I--------------------------------I
--------------------------------I--------------------------------I
--------------------------------I--------------------------------I
--------------------------------I--------------------------------I
--------------------5p0-5-5-----I(5)^----r-----------x---x-x-x-x-I
--------------------------------I--------------------------------I

--------------------------------I--------------------------------I
--------------------------------I--------------------------------I
--------------------------------I--------------------------------I
--------------------------------I--------------------------------I
2-----------2---2---5p0-1p0-----I2-----------2---2---5p0-1p0-----I
0-----------0---0-----------3p0-I0-----------0---0-----------3p0-I

All these lyrics are played over the following tablature line.

Verse 1:
Hey,            I'm your life.   I'm the one who takes you there.
Hey,            I'm your life.   I'm the one who cares.
They,           they betray.     I'm your only true friend now.
They,           they'll betray.  I'm forever there.

Verse 2:
You,            you're my mask.  You're my cover, my shelter.
You,            you're my mask.  You're the one who's blamed.
Do,             do my work.      Do my dirty work, scapegoat.
Do,             do my deeds,     for you're the one who's shamed.

Verse 3:
Hate,           I'm your hate.   I'm your hate when you want love.
Pay,            pay the price.   Pay, for nothing's fair.
Hey,            I'm your life.   I'm the one who took you there.
Hey,            I'm your life.   And I no longer care.

--------------------------------I--------------------------------I
--------------------------------I--------------------------------I
--------------------------------I--------------------------------I
------------7-------------------I------------3-------------------I
------------5-------------------I------------1-------------------I
0---0---0-0-----0---0-------0-0-I0---0---0-------0---0-------0-0-I


        I'm your dream, make you real. I'm your eyes when you must
        I'm your dream, mind astray. I'm your eyes when you're a-
--------------------------------I--------------------------------I
--------------------------------I--------------------------------I
--------------------------------I--------------------------------I
--------3-3-0---3---2-----------I--------3-3-0-------------------I
--------3-3-0---3---2-----------I--------3-3-0-------7---7---7-7-I
0---0-------------------0---0-0-I0---0-----------0---5---5---5-5-I


steal I'm your pain when you can't feel         Sad but true
way I'm your pain while you repay You know it's sad but true.
--------------------------------I--------------------------------I
--------------------------------I--------------------------------I
--------------------------------I--------___3___-----------------I
--------------------------------I--------5--5--5-5---------------I
7---7---8-8-5---7---5---5---5-5-I5---5---3--3--3-3-------3-3-----I
5---5---6-6-3---5---3---3---3-3-I3---3---------------0---1-1-0---I

_____________________
I 1.                           Sad but true.
--------------------------------I   I   I--------------------------------I
--------------------------------I   I   I--------------------------------I
--------------------------------I % I % I--------------------------------I
--------------------------------I   I   I--------------------------------I
2-----------2---2---5p0-1p0-----I   I   I2-----------2---2---5p0-5-5-----I
0-----------0---0-----------3p0-I   I   I0-----------0---0---------------I

--------------------------------I--------------------------------I
--------------------------------I--------------------------------I
--------------------------------I--------------------------------I
--------------------------------I--------------------------------I
2-----------2---2---5p0-1p0-----I2-----------2---2---5p0-5-5-----I
0-----------0---0-----------3p0-I0-----------0---0---------------I

--------------------------------I
--------------------------------I 
--------------------------------I Go back and play verse 2.
--------------------------------I
(5)-----------------x---x-x-x-x-I
--------------------------------I

_____________________
I 2.                        Sad but true.
--------------------------------I   I--------------------------------I
--------------------------------I   I--------------------------------I
--------------------------------I % I--------------------------------I
--------------------------------I   I--------------------------------I
2-----------2---2---5p0-1p0-----I   I2-----------2---2-------0h1p0---I
0-----------0---0-----------3p0-I   I0-----------0---0---0-3-------3-I

--------------------------------I--------------------------------I
--------------------------------I--------------------------------I
--------------------------------I--------------------------------I
---/7---6---5---2---------------I---/7---6---5---3---------------I
--------------------------------I--------------------------------I
--------------------------------I--------------------------------I
                                I                                I
--------------------------------I--------------------------------I
--------------------------------I--------------------------------I
--------------------------------I--------------------------------I
2-------------------2---2---2---I3-----------------------3-------I
0-------------------0---0---0---I1-----------------------1-------I
--------------------------------I--------------------------------I

--------------------------------I--------------------------------I
--------------------------------I--------------------5---4---3---I
--------------------------------I--------------------------------I
---/7---6---5---2---------------I---/7---6---5---3---------------I
--------------------------------I--------------------------------I
--------------------------------I--------------------------------I
                                I                                I
--------------------------------I--------------------------------I
--------------------------------I--------------------------------I
--------------------------------I-------------------/7---6---5---I
2-------------------2---2---2---I3-------------------------------I
0-------------------0---0---0---I1-------------------------------I
--------------------------------I--------------------------------I

--------------------------------I--------------------------------I
--------------------5---4---3---I--------------------------------I
2-------------------------------I3-------------------------------I
--------------------------------I--------------------2-3-5-3-5-3-I
--------------------------------I--------------------------------I
--------------------------------I--------------------------------I
                                I                                I
--------------------------------I--------------------------------I
--------------------------------I--------------------------------I
--------------------------------I--------------------------------I
2------------------/7---6---5---I3-------------------2-3-5-3-5-3-I
--------0-----------------------I--------1-----------------------I
--------------------------------I--------------------------------I

--------------------------------I----            ----------------I
--------------------------------I----            ------------3-s-I
2-------------------------------I----            ------------5-s-I
--------------------2-3-5-3-5-2-I3---            ----------------I
--------------------------------I----            --Solo 1--------I
--------------------------------I----            ----------------I
                                I                                I
--------------------------------I----            ----------------I
--------------------------------I----            ----------------I
--------------------------------I----            ----------------I
2-------------------2-3-5-3-5-2-I3---            ----------------I
--------0-----------------------I----            ----x---x-x-x-x-I
--------------------------------I----            ----------------I

For the backing rhythm figure of solo 1 see end of transcription

----------------------------------------------------------------I
12----------------------------------------------12--12--12------I
11----------------------------------------------12--12--12------I
--------------------------------14\-----12--14------------------I
----------------------------------------------------------------I
----------------------------------------------------------------I

----------------------------------------------------------------I
----------------12----------------------------------------------I
----------------12----------------------------------------------I
14------------------14--12------14-12-----------\-------12--14--I
----------------------------14--**------------------14----------I
----------------------------------------------------------------I


----------------------------------------------------------------I
12--------------------------------------------------------------I
12------------------------------9p7p6---------------------------I
----14--12------14----------------------9---7---9-----------\---I
------------14--**------------------------------**--------------I
----------------------------------------------------------------I

----------------------------------------------------------------I
----------------------------------------------------------------I
4-h-5p4-----4---------------------------------------------------I
--------7-------7---5---4-----------------------9---s---5---s---I
----------------------------5---7-------------------------------I
--------------------------------**------------------------------I

---------- -- -- -- ____3___--- -------- -- ------ -- --------------------I
----12--15p12 15p12 ---12 12-15p12----12h15p12--12h15p12------------------I
14^------- -- -- -- 14^-- ----- --14^--- -- --14-- -- --1412--------------I
---------- -- -- -- ----- ----- -------- -- ------ -- --------14--14------I
---------- -- -- -- ----- ----- -------- -- ------ -- --------------------I
---------- -- -- -- ----- ----- -------- -- ------ -- --------------------I

----------------------------------------------------------------I
--------12------------------------------------------------------I
--------12------14--12------------------------------------------I
12-h14------14----------14--12----------------------------------I
--------------------------------14--12-s10--12--10--------------I
----------------------------------------------------------------I

----------------------------------------------------------------I
14^-r---14^-r-------------------14^-r-----------12--------------I
14^-r---14^-r---14^r12--12--14--14^-r---12------12----------12--I
----------------------14--------------------14----------14------I
----------------------------------------------------------------I
----------------------------------------------------------------I

----------------------------------------------------------------I
14^-r---12--14^-r---12--14^-r---12--14^-r-----------------------I
14^-r---12--14^-r---12--14^-r---12--14^-r---12--14^-------------I
------------------------------------------------------------12--I
----------------------------------------------------------------I
----------------------------------------------------------------I

________6________ ________6________ _________6________ ________6________I
----------------- ----------------- ------------------ -----------------I
----------------- ----------------- -------------12-12 13-12-13-15-15-15I
----------------- ---------12----12 14-12-14-14^------ -----------------I
---------12----12 14-12-14----14--- ------------------ -----------------I
14-12-14----14--- ----------------- ------------------ -----------------I
----------------- ----------------- ------------------ -----------------I

                    __________6_________ _______6_______ 
12h15p12--12--12 12 15p12 12 12 12 12 12-15p12 -- --------- --------------I
-- -- --15------ -- ----- -- -- -- -- -------- 15p13--13-15p13----13--15--I
-- -- ---------- -- ----- -- -- -- -- -------- -- --14----- --14----------I
-- -- ---------- -- ----- -- -- -- -- -------- -- --------- --------------I
-- -- ---------- -- ----- -- -- -- -- -------- -- --------- --------------I
-- -- ---------- -- ----- -- -- -- -- -------- -- --------- --------------I

15------15------------------------------r-----------------------I
15^-----15^-----------------------------r-----------------------I
----------------------------------------------------------------I
----------------------------------------------------------------I
----------------------------------------------------------------I
----------------------------------------------------------------I

At this point play Chorus once and go on with the second solo:

----------------------------------------------------------------I
----------------------------------------------------------------I
----------------------------------------------------------------I
2-------2-p-0---2-------2-p-0---2-------------------------------I
----------------------------------------------------------------I
----------------------------------------------------------------I
                                                                I
----------------------------------------------------------------I
----------------------------------------------------------------I
----------------------------------------------------------------I
----------------------------------------------------------------I
2-----------------------2-------2-------5-p-0---1-p-0-----------I
0-----------------------0----

---------------------------     MetallicA     --------------------------------
Holier Than Thou
----------------
Transcription by Tim Scott

This is a non-spoon feeding type of tab.  It gives enough information 
on how to play the song and leaves the player the task of counting
how many times a rhythm is played, the changes, etc...

Intro Rhythm 1
    ____  ___3___  ___3___  ____  repeat umpteen times....
--|-|--|--|--|--|--|--|--|--|--|-|-----------------------------------------
--|-|--|--|--|--|--|--|--|--|--|-|-----------------------------------------
-/^\|--|--|--|--|--|--|--|--|--|/|-----------------------------------------
2-|[2]-|--|--|--|--|--|--|--|--2-|-----------------------------------------
2-|[2]-|--|--|--|--|--|--|--|--2-|-----------------------------------------
0-|[0]-0--0--0--0--0--0--0--0--0-|-----------------------------------------
(brackets signify the chord is held over from previous measure..)

   Lead in to rhythm 2   
--|---------------------|---------------------|----------------------|-----
--|---------------------|---------------------|----------------------|-----
--|---------------------|---------------------|----------------------|-----
--|---------------------|---------------------|----------------------|-----
--|-0--1--0------------/^\--0^1--------------/^\--0^1----------------|-----
--|----------3--5--3--0-|[0]----0--3--5--3--0-|[0]----0--3--5--3~~~~-|-----
                         /\ P.M.-------| P.M.---|              (~ = vibrato)
Hold on 1st time only ___/
P.M. and pick otherwise...

Rhythm 3 (accompanies lyrics)                     
-----------------------------|-------------------|-------------------------
-----------------------------|-------------------|-------------------------
-----------------------------|-------------------|-------------------------
-----------------2-----------|----------------5--|-------------------------
--0--1--0--------2-----------|-0--1--0--------5--|-------------------------
-----------3--5--0-----------|----------3--5--3--|-------------------------
           PM-|

End of verse riff
----------------------------------------|----------------------------------
----------------------------------------|----------------------------------
----------------------------------------|----------------------------------
--------------------------------------2-|----------------------------------
-0--1--0------------------------------2-|----------------------------------
----------3--5--3--6--6--6-6-6--5--3--0-|----------------------------------


Riff before solo    (Repeat once)   (Repeat twice with this added to end)
---------------------------------|-----------------------------------------
---------------------------------|-----------------------------------------
--------------------------------.|-----------------------------------------
-----------5-7-8-----------8-7-5.|---5-7-----------------------------------
--7--4-6-7-------7--4-6-7--------|-8---------------------------------------
---------------------------------|-----------------------------------------


Repeat the riff and the extra end and end it like this
-----------------------------------|---------------------------------------
-----------------------------------|---------------------------------------
-----------------------------------|---------------------------------------
----5--7-----5--7-----5--7>slide>14|---------------------------------------
--9-------10-------11--------------|---------------------------------------
-----------------------------------|---------------------------------------

I haven't got the solo entirely down (that damn wah-wah screws me up) but
I also don't plan on posting it when I do...So good luck with that..

With this info you should be able to figure out most if not all of the
song...Have fun with it...

---------------------------     MetallicA     --------------------------------
The Unforgiven
--------------
There are actually 4 different guitars played in this song, so it's quite
difficult to type in the whole tabs, so I've left the rhythm guitar and 
some fills off, but here is some kind of version to play along with
I hope you are satisfied. If you need the fills, email me, and I'll
try to find out a way to type them in a way that can be read. The rhythm
figure might be a bit easier, so I might make a ChordPro file out of it.

The timing should be right, 1/8 note equals to 0---, 1/16 to 0- etc.)

I've used two .s to indicate the repeat mark in the notes, I hope it doesn't
bother you

Slowly ( 0--- =69 )

THE INTRO PART:
---------------
4/4 timing
 Gtr II (electric, clean tone)                     H            ~~~~~
|---------------------------------|---------------------------------|
|---------------------------------|---------------------------------|
|---------------------------------|---------2---4-5^4-------5-4-2---|
|---------------------------------|---------------------------------|
|---------------------------------|---------------------------------|
|---------------------------------|---------------------------------|
|Gtr I. (acous.)
| let ring            Play 4 times
|---------------------------------|---------------------------------|
|.0-------0-----0-----0-----1----.|-0-------0-----0-----1-----1-----|
|-----2-----2-----2-----2-----2---|-----2-----2-----2-----2-----2---|
|.------2-----2-----2-----2-----2.|-------2-----2-----2-----2-----2-|
|-0-------------------------------|-0-------------------------------|
|---------------------------------|---------------------------------|

 ~~~~~~~~        H          ~~~~~~~~~~~~~~~                     ~~~~~
|---------------------------------|---------------------------------|
|---------------------------------|---------------------------------|
|(2)------2---4-4^5-------5-2-----|(2)------2---4-4^5-------5-4-2---|
|---------------------------------|---------------------------------|
|---------------------------------|---------------------------------|
|---------------------------------|---------------------------------|
|
|
|---------------------------------|---------------------------------|
|-0-------0-----1-----1-----1-----|-0-------0-----0-----1-----1-----|
|-----2-----2-----2-----2-----2---|-----2-----2-----2-----2-----2---|
|-------2-----2-----2-----2-----2-|-------2-----2-----2-----2-----2-|
|-0-------------------------------|-0-------------------------------|
|---------------------------------|---------------------------------|

 ~~~~~~~~        H          ~~~~~~~~~~~~~~~
|---------------------------------|---------------------------------|
|---------------------------------|---------------------------------|
|(2)------2---4-4^5-------5-2-----|(2)------2---4-4^5----4^5------5-|
|---------------------------------|---------------------------------|
|---------------------------------|---------------------------------|
|---------------------------------|---------------------------------|
|
|
|---------------------------------|---------------------------------|
|-0-------0-----1-----1-----1-----|-------------0---1-------1-----1-|
|-----2-----2-----2-----2-----2---|---------2-----------------------|
|-------2-----2-----2-----2-----2-|-----2-----------------2-----2---|
|-0-------------------------------|-0-------------------3-----------|
|---------------------------------|---------------------------------|

     ~~~~~~~~ sl             H                     H       H
|---------------------------------|---------------------------------|
|---------------------------------|-----------------------3^5-----5-|
|-5-4---------4\----------2-2^4---|-2-------2---4-4^5---------------|
|-----5-----------2---------------|---------------------------------|
|---------------------------------|---------------------------------|
|---------------------------------|---------------------------------|
|
|                              H
|---------------------------------|-------------------------0-----0-|
|---------------------------------|-------------0---1-----------1---|
|-----0-------0-----------2---2^4-|-2-------2-----------------------|
|---0-------------2---2-2---------|-------2---------------2---------|
|---------------------------------|-----0---------------3-----------|
|-3-------3-----------------------|---------------------------------|

               sl        sl    H    ~~~~~~~~~~~~~~~~~~~~~~~~~~~~~~~~
|---------------------------------|---------------------------------|
|-5-3-----------------------------|---------------------------------|
|-----4-------4\--1------\4-1-2^4-|-2-------------------------------|
|---------------------------------|---------------------------------|
|---------------------------------|---------------------------------|
|---------------------------------|---------------------------------|
|
|
|---------------------------------|---------------------------------|
|-1-3-0-------3-------------------|---------0-----0-----0-----1-----|
|-----------------1---1---4-1-2^4-|-----2-----2-----2-----2-----2---|
|---------------------------------|-------2-----2-----2-----2-----2-|
|---------------------------------|-0-------------------------------|
|---------3-----------------------|---------------------------------|

(Gtr.II out)
|---------------------------------||
|---------------------------------||
|---------------------------------||
|---------------------------------||
|---------------------------------||
|---------------------------------||
|
|                        (Gtr.I out)
|---------------------------------||
|-0-------0-----0-----0-----1-----||
|-----2-----2-----2-----2---------||
|-------2-----2-----2-----2-------||
|-0-------------------------------||
|---------------------------------||


VERSE PART
~~~~~~~~~~
 
             H    ~~~~~~~
|---------------------------------|---------------------------------|
|.----------------------------8---|-8---7---7-----------------------|
|-7---5---4-4^5-------------------|-------------5---5-----------7---|
|-----------------5---------------|---------------------------------|
|.--------------------------------|---------------------------------|
|---------------------------------|---------------------------------|
 New  blood_joins this earth  and quickly he's sub-dued       Through
 

|---------------------------------|---------------------------------|
|---------------------------------|---------------------------------|
|---------------------------------|---------------------------------|
|---------------------------------|---------------------------------|
|---------------------------------|---------------------------------|
|---------------------------------|---------------------------------|
constant pain_ disgrace,- the young _boy_ learns their rules._   With

|---------------------------------|---------------------------------|
|---------------------------------|---------------------------------|
|---------------------------------|---------------------------------|
|---------------------------------|---------------------------------|
|---------------------------------|---------------------------------|
|---------------------------------|---------------------------------|
time the child draws in      this whipping boy done wrong.        De-

             H    ~~~~~~~         2/4 timing
|---------------------------------|-----------------|
|-----------------------------8---|-8---7---7-------|
|-7---5---4-4^5-------------------|-------------5---|
|-----------------5---------------|-----------------|
|---------------------------------|-----------------|
|---------------------------------|-----------------|
prived of all_his_ thoughts, the young_ man struggles

    P.M--|  P.M--|  P.M--|  P.M--| 
|---------------------------------|---------------------------------|
|---------------------------------|---------------------------------|
|-5-------4-------2-------0-------|---------------------------------|
|---0-------0-------0-------0-----|-5-------------------------------|
|-----0-0-----0-0-----0-0-----0-0-|-3---------5-3-0-5---------------|
|---------------------------------|-----------------3---------------|
on and  on. He knows,_      oo, a  vow unto   his own            that

    P.M--|  P.M--|  P.M--|  P.M--|
|---------------------------------|---------------------------------|
|---------------------------------|---------------------------------|
|-5-------4-------2-------0-------|---------------------------------|
|---0-------0-------0-------0-----|-5-------------------------------|
|-----0-0-----0-0-----0-0-----0-0-|-3---------5-3-0-3---------------|
|---------------------------------|-----------------5---------------|
never from_ this day_         his will they'll take a - way__________

2/4 timing
|----------------||
|----------------||
|----------------||
|----------------||
|-2--------------||
|-0--------------||
______________


CHORUS PART
~~~~~~~~~~~
Gtr II 
mf                       ~~~~~~~        ~~~~~~~  sl.           H
|---------------------------------|---------------------------------|
|---------------------------------|---------------------------------|
|--------2---4---5-------5------5-|-5-4---------4\----------2-2^4---|
|---------------------------------|-----5-----------2---------------|
|---------------------------------|---------------------------------|
|---------------------------------|---------------------------------|
What I've felt,__  what I've   known never shined through in what I've

  ~~~~~~~~        ~~~~~~~~
|---------------------------------|---------------------------------|
|-------------------------5-----5-|-5-3-----------------------------|
|-2-------2---4---5---------------|-----4-------4\--1------\4-1-2^4-|
|---------------------------------|---------------------------------|
| --------------------------------|---------------------------------|
|---------------------------------|---------------------------------|
shown. Never be.___   Never see.______  Won't see what_ might have___

  ~~~~~~~         ~~~~~~~~              ~~~~~~~  sl.           H
|---------------------------------|---------------------------------|
|---------------------------------|---------------------------------|
|-2-------2---4---5-------5-----5-|-5-4---------4\----------2-2^4---|
|---------------------------------|-----5-----------2---------------|
|---------------------------------|---------------------------------|
|---------------------------------|---------------------------------|
been.What I've felt,what I've known,never shined through in what I've shown

  ~~~~~~~         ~~~~~~~               ~~~~~~~~ sl.       sl.   H
|---------------------------------|---------------------------------|
|-------------------------5-----5-|-5-3-----------------------------|
|-2-------2---4---5---------------|-----4-------4\--1------\4-1-2^4-|
|---------------------------------|---------------------------------|
|---------------------------------|---------------------------------|
|---------------------------------|---------------------------------|
          Never free.     Never me.           So I dub thee unforgiv-


  ~~~~~~~~~~~~~~~~~~~~~~~~~~~~~~~  Played after 1st verse
|---------------------------------|---------------------------------|
|---------------------------------|--------------------------------.|
|-2-------------------------------|---------------------------------|
|---------------------------------|---------------------------------|
|---------------------------------|--------------------------------.|
|---------------------------------|---------------------------------|
en.                                                            2.They


 Play after 2nd verse                Interlude
 Gtr. I                             Gtr. II
|---------------------------------||---------------------------------|
|-0-------0-----0-----0-----1-----||---------------------------------|
|-----2-----2-----2-----2-----2---||---4-5-7-5-4^5^4---4-------------|
|-------2-----2-----2-----2-----2-||-7---------------7---5-5^7-------|
|-0-------------------------------||---------------------------------|
|---------------------------------||---------------------------------|


To be continued....

Additional Lyrics:

2. They dedicate their lives to running all of his
He tries to please them all, this bitter man he is
Throughout the life the same, he's battled constantly
This fight he cannot win. A tired man they see no longer cares.
The old man then prepares to die regretfully
That old man here is me. (To Chorus)

---------------------------     MetallicA     --------------------------------
Wherever I May Roam
-------------------
Intro (Sitar arranged for guitar)

----------------|------------ ----|----------------|----------------|
------5-5s6-5---|------8-8s10 6---|5-----5-5s6-5---|(5)-------------| Repeat
----------------|------------ ----|----------------|----------------| this
------2-2s3-2---|------5-5s7- 3---|2-----2-2s3-2---|(2)-------------| line
----------------|------------ ----|----------------|----------------| once
0---------------|0----------- ---0|----------------|----------------|

----------------|------------    ----|------------------------|    ------|
------5-5s6-5---|------8-8s10 10s6---|5-----------------------|    ------|
----------------|------------    ----|------------------------|    ------|
------2-2s3-2---|------5-5s7-  7s3---|2-----------------------|    ------|
----------------|------------    ----|------------------------|    ------|
0---------------|0-----------    ----|0-----------------------|    5s20\-|

----------------|----------------|----------------|----------------|
----------------|----------------|----------------|----------------| Repeat 
----------------|----------------|----------------|----------------| this
----------------|------5-5s7-----|----------------|----------------| line
------7-7h8-7---|------------8---|7-----7-7h8-7---|(7)-------------| once
0---------------|----------------|0---------------|----------------|

--------|----------------|
--------|----------------|
--------|----------------|
--------|----------------|
(7)-----|7---8---9---10\-|
--------|5---6---7---8-\-|

Rhy. Fig.1                                         (end Rhy. Fig. 1)
----------------|----------------|----------------|----------------|
----------------|----------------|----------------|----------------| Repeat 
----------------|----------------|----------------|----------------| this
-------------tr-|------5-5s7-----|9------------tr-|----------------| line
2-----7-7h8-7(8)|7-----------8---|7-----7-7h8-7(8)|7---8---9---10--| once
0---0-----------|0---0-----------|0---0-----------|5---6---7---8---|

Rhy. Fig.2                                         (end Rhy. Fig. 2)
----------------|----------------|----------------|----------------|
----------------|----------------|----------------|----------------|
----------------|----------------|----------------|----------------|
-------------tr-|------5-5s7-----|9------------tr-|----------------|
5-6-7-8-7h8-7(8)|7-----------8---|7-----7-7h8-7(8)|7---8---9---10--|
----------------|0---0-----------|0---0-----------|5---6---7---8---|

--------|----------------|----------------|----------------|------------------|
--------|----------------|----------------|----------------|------------------|
--------|----------------|----------------|----------------|------------------|
--------|2---------------|----------------|----3-----------|------------------|
5-6-7-8-|2---------------|----------------|--3-------------|------------------|
--------|0---------------|----------------|1---------------|------------------|

       And the road becomes my bride     And the road becomes my bride
----------------|----------------|----------------|----------------|
----------------|----------------|----------------|----------------|
------0---------|----------------|----------------|----------------|
----2-----------|----------------|----3-----------|----------------|
--2-------------|----------------|--3-------------|----------------|
0---------------|----------------|1---------------|----------3s10\-|

E5--------------|----------------|Bb5-------------|----------------|
       I have stripped of all but pride,        so in her I do  con-

A5--------------|----------------|Bb5-------------|------------E-E-|
fide,   and she keeps me satis-   fied          Gives me all I need

E5--------------|----------------|Bb5-------------|----------------|
        And with dust in throne I crave, only knowledge will  I save
--------0-------|--------0-------|----------------|----------------|
------------0---|------------0---|--------3-------|--------3-------|
----------------|----------------|------------3---|------------3---|
----------------|----------------|----3-----------|----3-----------|
----2-----------|----2-----------|1---------------|1---------------|
0---------------|0---------------|----------------|----------------|

G5--------------|----------------|Bb5-------------|----------------|
           To the game you stay a slave             rover, wanderer
----------------|----------------|----------------|----------------|
--------3-------|--------3-------|--------3-------|--------3-------|
------------3---|------------3---|------------3---|------------3---|
----------------|----------------|----3-----------|----3-----------|
----1-----------|----1-----------|1---------------|1---------------|
3---------------|3---------------|----------------|----------------|

nomad, vagabond  call me what you will
----------------|----------------|----------------|----------------|
----------------|----------------|----------------|----------------|
----------------|----------------|----------------|----------------|
----------------|----------------|------5-5s7-----|9------------tr-|
1---1---2---3---|5-6-7-8-7h8-7---|7-----------8---|7-----7-7h8-7(8)|
----------------|----------------|0---0-----------|0---0-----------|

             Oh          But I'll take my time anywhere     free to
----------------|----------------|----------------|----------------|
----------------|----------------|----------------|----------------|
----------------|----------------|-------------tr-|----------------|
----------------|3---3-------3---|----3---2h3-2(3)|2---2-------2---|
7---8---9---10--|3---3-------3---|----3-----------|2---2-------2---|
5---6---7---8---|1---1---1-1-1---|1-1-1-----------|0---0---0-0-0---|

speak my mind anywhere   And I'll redefine anywhere
----------------|----------------|----------------|
----------------|----------------|----------------|
-------------tr-|3---3-------3---|----3--------tr-|
----2---2h3-2(3)|3---3-------3---|----3---2h3-2(3)|
----2-----------|1---1---1-1-1---|1-1-1-----------|
0-0-0-----------|----------------|----------------|

A5--------------|----------------|G5--------------|------------D-\-|
Anywhere I roam                   Where I lay my head is home, yeah

First time play Rhy.Fig. 1 and continue as follows,
second time skip to CODA 

              And the earth becomes my throne  And the earth becomes my throne
--------|----------------|----------------|----------------|------------------|
--------|----------------|----------------|----------------|------------------|
--------|----------------|----------------|----------------|------------------|
--------|2---------------|----------------|----3-----------|------------------|
5-6-7-8-|2---------------|----------------|--3-------------|------------------|
--------|0---------------|----------------|1---------------|------------3s10\-|

Continue with Verse 2

CODA
----------------|-------- --------|----------------|---------- -- ----|
----------------|-------- --------|----------------|---------- -- ----|
----------------|-----tr- ----9---|----------------|----8-9-11s12 8---|
-------------tr-|6-7-6(7) 9-10----|------------6-7-|9-10------ -- ----|
2----/7-7-8-7(8)|-------- --------|2-------7-8-----|---------- -- ----|
0---0-----------|-------- --------|0---0-0---------|---------- -- ----|

For the next line you have two guitars notated one above the other.

----------------|-------- --------|----------------|---------- -- ----|
----------------|-----tr- ----8---|----------------|----7-8-10 12 7---|
-------------tr-|4-5-4(5) 8-9-9---|------------4-5-|8-9-8-9-11 12 8---|
--------6-7-6(7)|6-7-6(7) 9-10----|--------6-7-6-7-|9-10------ -- ----|
2---2---7-8-7(8)|-------- --------|2---2---7-8-----|---------- -- ----|
0---0-0---------|-------- --------|0---0-0---------|---------- -- ----|

Play prechorus and chorus again

Solo 1

Play prechorus and last chorus which goes:


A5--------------|----------------|G5--------------|----------------|
Anywhere I roam                   Where I lay my head is home

C5--------------|----------------|B5--------------|Bb5-------E-G-F#|
Carved upon my stone           my body lie, but    still I roam yeah yeah

Rhy.fig.1

Rhy.fig.2 until end over solo 2

---------------------------     MetallicA     --------------------------------
Don't Tred On Me
----------------
All gtrs tune down 1/2 step

                           Tablature Explanation
     p.m. - palm muting
     ^    - bend, above the staff is the amount of bend
            F - full step     1/2 - half step    2 - two steps...
     tr~~~- trill between note and note in paranthesis
     H    - Hammer on
     P    - Pull off

     Note, in part of the solo, i placed the Hammer ons and pull offs
       above the staff to make reading easier.  I also used lower case
       and upper case for the same reason.  There is no difference in 
       the meanings.


 Rhy. Fig 1---------------------------------------------------------------|
 12/8 time                              two guitars
 p.m. -|            p.m. -|             p.m. ------| (cont muting pattern)
||------------------|------------------|----------------------------------|
||------------------|------------------|----------------------------------|
||------------------|------------------|-------9-9-9----------------------|
||------------------|------------------|-9-9-9-2-2-2--9/11----------------|
||-2-2-2-----2-2----|-2-2-2-----2-2----|-2-2-2--------2/4---12-----7------|          
||-0-0-0-----0-0----|-0-0-0-----0-0----|---------------------5-----0------|

||-----------------------------------|----------------------------------|
||-----------------------------------|----------------------------------|
||-------9-9-9-9/11------------------|------121212--11------------------|
||-9-9-9-2-2-2-2/4----13-------------|121212-5-5-5---4-----12-----------|
||-2-2-2---------------8-----9-------|-5-5-5----------------5-----12----|          
||---------------------------7-------|-----------------------------5----|

6/8 time             12/8 time
p.m.---------------| let ring--------------------------| w/Rhy Fig 1 (3x)
||------------------|-----------------|-----------------|-----------------|
||------------------|-----------------|-----------------|-----------------|
||------------------|----9------------|-----------------|-----------------|
||---------10-10-10-|-9--2--9---------|(9)--------------|-----------------|
||10-10-10--3--3--3-|-2-----2---------|(2)--------------|-----------------|          
||-3--3--3----------|-----------------|-----------------|-----------------|

                     Rhy. Fig. 2
                     p.m.--|    p.m.---|    p.m.-----| (sim.)
||------------------|-------------------------|-------------------------|
||------------------|-------------------------|-------------------------|
||------------------|-------------------------|-------------------------|
||------------------|-------3-----------3-----|-------3-----------------|
||------------------|-2-2-2-1---3-2---2-1---3-|-2-2-2-1---3-2---3/5---3-|
||------------------|-0-0-0-----1-0---0-----1-|-0-0-0-----1-0---1/3---1-|
                                     (end Rhy Fig 2)  w/Rhy Fig 2 (2x)
||-------------------------|-------------------------|-----------------|
||-------------------------|-------------------------|-----------------|
||-------------------------|-------------------------|-----------------|
||-------3-----------3-----|-------3-----------------|-----------------|
||-2-2-2-1---3-2---2-1---3-|-2-2-2-1---3-2---3/5---3-|-----------------|          
||-0-0-0-----1-0---0-----1-|-0-0-0-----1-0---1/3---1-|-----------------|

                   Riff A    w/slide
||----------------|---------------------|------------------|-----------------|
||----------------|---------------------|------------------|-----------------|
||----------------|---------/12-\-11--9-|(9)----/12\11-9-9-|------/12-\-11-9-|
||----------------|---------------------|------------------|-----------------|
||----------------|---------------------|------------------|-----------------|          
||----------------|-0-------------------|------------------|-0---------------|
                    Don't tread on me

        (end Riff A)  Rhy Fig 3
||------------------||------------------|-----------------|-----------------|
||------------------||------------------|-----------------|-----------------|
||(9)----/12\11-9-9-||o-----------------|-----------------|-----------------|
||------------------||o-----------------|-----------------|-----------------|
||------------------||--2-2-2----2--2---|-2-2-2----3--3---|-4-4-4----5--5---|          
||------------------||--0-0-0----0--0---|-0-0-0----1--1---|-2-2-2----3--3---|
                     Liberty or...

      (end Rhy Fig 3) w/Rhy Fig 2
||-------------------|-----------------|-----------------|-----------------|
||-------------------|-----------------|-----------------|-----------------|
||-------------------|-----------------|-----------------|-----------------|
||---------------7---|-----------------|-----------------|-----------------|
||-6-6-6----7--8-5---|-----------------|-----------------|-----------------|          
||-4-4-4----5--6---7-|-----------------|-----------------|-----------------|
                          Never begins...

                                       w/Rhy Fig 2 (1st 2 bars only)
||------------------|-----------------|-----------------|-----------------|
||------------------|-----------------|-----------------|-----------------|
||------------------|-----------------|-----------------|-----------------|
||------------------|-----------------|-----------------|-----------------|
||------------------|-----------------|-----------------|-----------------|          
||------------------|-----------------|-0---------------|(0)--------------|
                               ...rage.                               Say, 
                                                    Rhy Fig 4
||-----------------------|-------------------------|-------------------------|
||-----------------------|-------------------------|-------------------------|
||-----------------------|-------------------------|-------------------------|
||-------4---------------|-------2-----------------|-------------------------|
||-2-222-2-2-2-222-5-2-2-|-2-222-0-2-2-------------|-2---2-2-2-2-2---2-2-2-2-|          
||-0-000---0-0-000-3-0-0-|-0-000---0-0-6-0-5-0-3-0-|-0---0-0-0-0-0---0-0-0-0-|
 don't tread on me                                              So  be  it

                                                        (end Rhy Fig 4)
||-------------------------|----------------------|--------------------|
||-------------------------|----------------------|--------------------|
||-------------------------|----------------------|--------------------|
||---------------------2---|-8---8---8-8-8---8--8-|---------------2--3-|
||-2---2-2-2-2-2-------0---|-5---5---5-5-5---5--5-|-5---5-----6---0--1-|          
||-0---0-0-0-0-0---2-3-----|----------------------|-3---3-----4--------|
            threaten no more        to secure peace               war

 w/Rhy Fig 4 (1st 3 bars only)
||------------------|-----------------|-----------------|-----------------|
||--------------9---|-----------------|-----------------|-----------------|
||----------7/9-----|-----------------|-----------------|-----------------|
||------------------|-----------------|-----------------|-----------------|
||------------------|-----------------|-----------------|-5--5--5-5--5----|          
||------------------|-----------------|-----------------|-3--3--3-3--3----|

                        |--------------------------------------------------
                        |1.
                         w/Rhy Fig 2 & Riff A
||---------------------|-----------------|-----------------|-----------------|
||---------------------|-----------------|-----------------|-----------------|
||---------------------|-----------------|-----------------|-----------------|
||---------------------|-----------------|-----------------|-----------------|
||-2-222-5-2-222-5-2-2-|-----------------|-----------------|-----------------|          
||-0-000-3-0-000-3-0-0-|-----------------|-----------------|-----------------|

--------------------| |--------------------                 Guitar Solo
                    | |2.                              FINE|w/Rhy Fig 2 (2x)
                    | |                     6/8 time        12/8 time
||------------------||---------------------|---------------|-------------------|
||------------------||---------------------|---------------|tr~~~tr~~~tr~~~tr~~|
||-----------------o||---------------------|---------------|12(0)11(0)12(0)11(0|
||-----------------o||---------------------|---------------|-------------------|
||------------------||-5-555-5---8--5---3--|---------------|-------------------|          
||------------------||-3-333-3---6--3---1--|---------------|-------------------|
                                         Don't tread on me!
                                                                         1/2
                                F    F                                     F
||--------------------------|-----------12--------F-12|----------------------
||---------------/12--11-10\|-15^--15^-----15-12--12--|-15-------------------
||-12-(0)-11-(0)------------|-------------------14^---|---12---------H---14^-
||--------------------------|-------------------------|-----14-12--12-14-14^-
||--------------------------|-------------------------|----------14----------          
||--------------------------|-------------------------|----------------------

                         1/2                           1/2
                   F       F    F    F           F       F    F    2
----P-----------|-----------------------------|-----------------------------|
(14)-12---------|---12---14^-----12-----------|---12---14^------12----------|
(14)-12---------|14^--12-14^--14^--14^-12~~~~~|14^--14-14^--14^--14^-12~~~~~|
---------14~~~~~|-----------------------------|-----------------------------|          
----------------|-----------------------------|-----------------------------|
----------------|-----------------------------|-----------------------------|

       F      H P P       H P P    P           H P
||---15^--15141514121412------------------------------|----------------------
||----------------------14151412-1412\1012------------|14-12---14-12---14-12-
||----------------------------------------14-121412---|14-12---14-12---14-12-
||--------------------------------------------------14|-----14------14-------
||----------------------------------------------------|----------------------          
||----------------------------------------------------|----------------------

               P                                                     
------------|1712-12-12------------------------------------|----------------
------------|----------17-12-12-12-----P-------------------|----------------
------------|---------------------12-1712121212----P-------|----------------
-14-14~~~~~~|----------------------------------121712121212|-----------H----
------------|----------------------------------------------|12-17-12\1012-10          
------------|----------------------------------------------|----------------

                        H P  ph   P   p h      P  ph     H P
----------------------|-------------------------------------------------|
----------------------|-----------------------------------------13------|
------------12--------|9129-----1310------11-129-------101310---13---14-|
---------------14~~~~\|----10910----111011------1091010------11---------|
---10--12/14----------|-------------------------------------------------|          
-12-------------------|-------------------------------------------------|
                                                          H      F     F
||-------------------------------------|------------19-/-------13----14---|
||-16-14----16-14----17-15----17-15----|---19----17-----1517---16^---17^--|
||-16-14----16-14----17-15----17-15----|16----19--------------------------|
||-------16-------16-------17-------17-|----------------------------------|
||-------------------------------------|----------------------------------|          
||-------------------------------------|----------------------------------|

     F
||-22^-------~~~~~--|-------------------------|-------------------------|
||------------------|-------------------------|-------------------------|
||------------------|-------------------------|-------------------------|
||------------------|-------------------------|-------2-----------------|
||------------------|-2-222-5-2-2---222-5-2-2-|-2-222-0-2-2--P-----P----|          
||------------------|-0-000-3-0-0-0-000-3-0-0-|-0-000---0-0-6-0-0-5-0-0-|

||-------------------------|-------------------------|-----------------------|
||-------------------------|-------------------------|-----------------------|
||-------------------------|-------------------------|-----------------------|
||-------------------------|-------2-----------------|-----------------------|
||-2-222-5-2-2-2-222-5-2-2-|-2-222-0-2-2------P---P--|-2-222-5-2-2-2-222-5-22|          
||-0-000-3-0-0-0-000-3-0-0-|-0-000---0-0-6-0-5-0-3-0-|-0-000-3-0-0-0-000-3-00|

 Chorus
 w/Rhy Fig 4 
||------------------|-----------------|-----------------|-----------------|
||------------------|-----------------|-----------------|-----------------|
||--------------9---|-----------------|-----------------|-----------------|
||----------7/9-----|-----------------|-----------------|-----------------|
||------------------|-----------------|-----------------|-----------------|          
||------------------|-----------------|-----------------|-----------------|
          So be it        threaten...     to secure peace          ...war

 w/Rhy Fig 3      F             1/2  F
||------------------|-----------------|---H----------------|
||-----------F------|-----------17^15^|-1517----\-14-12-12-|
||-12---\----|\-----|-----------------|-----------14-12-12-|
||-12---\---14--12^-|(12)-------------|--------------------|
||------------------|-----------------|--------------------|          
||------------------|-----------------|--------------------|
      Liberty or...

   1/2  1/2   1/2
     F    F     F          D.S. (take 2nd ending) al Fine
||------------------------|-----------------|     
||------------------------|-----------------|   ^^^
||-14^--14^---14^---12-\--|-------------9---|   What this means is go back to 
||-14^--14^---14^---12-\--|---------7/9-----|   the repeat, take 2nd ending
||------------------------|-----------------|   again, and then stop at Fine.
||------------------------|-----------------|
                   tail.          So be it,


Lyrics:

Liberty of death, what we so proudly hail.
Once you provoke her, rattling of her tail.
Never begins is, never but once engaged,
never surrenders, showing the fangs of rage.
Say, Don't tread on me.

Chorus
So be it, threaten no more.
To secure peace is to prepare for war.
So be it, settle the score.
Touch me again for the words that you will hear evermore.

Don't tread on me

Love it or leave it, she, with the deadly bite.
Quick is the blue tongue, forked as the lightning strike.
Shining with brightness, always on surveillance.
The eyes, they never close, emblem of vigilance.
Say, Don't tread on me.

---------------------------     MetallicA     --------------------------------
Through the Never
-----------------
Transcribed by Leper.

         16x          Riff A         3x  Fill 1          Riff A 3x
||----------|--------|-----------------||---------------|         |----------|
||----------|--------|-----------------||---------------|         |----------|
||.--------.|--------|.---------------.||---------------|         |----------|
||.--------.|--------|.---------------.||---------------|         |----------|
||-----4----|-2-2---5|-----4-------3---||-----4-------5-|         |-2-2---5--|
||-0-2---2--|-0-0---3|-0-2---2-0-2---2-||-0-2---2-0-2-3-|         |-0-0---3--|
   PM.....             PM.............    PM.........
 
Riff A 3x  Fill 1  Riff A 3x 
                             |-------------------------|
                             |-------------------------|
                             |---------2-3-2-0---------|
                             |---------2-3-2-0-3-2-0-3-|
                             |-2-2-------------3-2-0-3-|
                             |-0-0---------------------|
                                               PM.....
 
Rhy Fig 1
|---------|---------|---------|---------|-----------|---------------------|
|---------|---------|---------|---------|-----------|---------------------|
|.--------|---------|---------|---------|---2----3--|-2-3-2-0------------.|
|.--------|---------|---------|---------|---2----3--|---------3-2-0-2-3P2.|
|---------|---------|---------|---------|-----------|---------------------|
|-0-0-0-0-|-0-0-0-0-|-0-0-0-0-|-0-0-0-0-|-0----0----|---------------------|
  PM...................................  PM   PM                              
                                      3x
|---------|---------|---------|---------|-----------|---------|---------|
|---------|---------|---------|---------|-----------|---------|---------|
|.--------|---------|---------|--------.|---2----3--|---------|---------|
|.--------|---------|---------|--------.|---2----3--|---------|---------|
|---------|---------|---------|---------|-----------|---------|---------|
|-0-0-0-0-|-0-0-0-0-|-0-0-0-0-|-0-0-0-0-|-0----0----|-0-0-0-0-|-0-0-0-0-|
  PM...................................  PM   PM      PM...............
 
|---------|---------|---------|---------|---------|---------|---------|
|---------|---------|---------|---------|---------|---------|---------|
|---------|---------|---------|---------|---------|---------|---------|
|---------|---------|---------|---------|---------|---------|---------|
|---------|---------|---------|---------|---------|---------|---------|
|-0-0-0-0-|-0-0-0-0-|-3-3-3-3-|-3-3-3-3-|-3-3-3-3-|-3-3-3-3-|-2-2-2-2-|
  PM.................................................................
                                               end Rhy Fig 1
|---------|---------|---------|-----------|-----------------|
|---------|---------|---------|-----------|-----------------|
|---------|---------|---------|---2----3--|-2-3-2-0---------|
|---------|---------|---------|---2----3--|---------3-2-0-3-|
|---------|---------|---------|-----------|-----------------|
|-2-2-2-2-|-2-2-2-2-|-2-2-2-2-|-0----0----|-----------------|
  PM.........................  PM   PM
 
 GTR I (Rhy Fig 2)                                         (end Rhy Fig 2)
|-----------------|-----------------|-----------------|-------------------|
|-----------------|-----------------|-----------------|-------------------|
|-----------------|-----------------|-----------------|-------------------|