Tabbed by Aidan Allan
Lanks67@hotmail.com

2x4   Tune down 1/2step  Eb Ab Db Gb Bb Eb

Riff A

               ~~~~~~            ~~~~~~
e---------------------|--------------------------------|-------------|
b---------------------|--------------------------------|-------------|
g---------------------|--------------------------------|-------------|
d---------------------|--------------------------------|-------------|
a---------------------|--------------------------------|-------------|
e--0--0---3/5--6------|---0--3/5--6-------0--3h5----0--|-0---3h5---0-|


Riff B  w/wah
          1/4          ~~~~~~          ~~~~
e------------------------------|-----------------------------------|
b------------------------------|-----------------------------------|
g------------------------------|-----------------------------------|
d------------------------------|-----------------------------------|
a-----------------------7------|-------7------------7--------------|
e--0---0---3b--0---5/6--------0|--5/6-------0--5/6------3b(5)--3--0|

Riff C
         1/4                b  r     ~~~~b   r      ~~~~~~
e-----------------------------------|------------------------------|
b-----------------------------------|------------------------------|
g-----------------------------------|------------------------------|
d-----------------------------------|------------------------------|
a-----------------------------------|------------------------------|
e--0---0--3b--0--(3)/5--0---5(6)(5)-|3---5(6)(5)-----3------0------|

Back to Riff B x 2
Then back to Riff C for verse 2.





2x4 by Metallica from the Donington show
Posted by: satan@mail.utexas.edu (John Buttery)
From: immortal@electech.dialix.oz.au (Adam Diggens)

Yes!  This is the complete tab. for 2 x 4 - The following is some
explanation of symbols and the order of riffs, solos and fills.
        ~ indicates slide
        / indicates bend up
        ^ indicates bend up and release
        \ indicates slide down
        H indicates hammer-on
        P indicates pull-off
        S stands for solo
        R stands for riff
        F stands for fill

    P A T T E R N    O F    2  x  4

Intro           R1 repeat four times
                        R2 w/R3 repeat four times
Verse 1                 R4 repeat four times
                        R2 w/R3 repeat two times
Verse 2                 R4 repeat four times
Retribution!    R5 repeat four times
Chorus          R1 repeat six times
                        R2 w/R3 repeat four times
Verse 3                 R4 repeat four times
Retribution!    R5 repeat three times
Chorus                  R1 repeat six times
Solo            R1 repeat four times w/S1
Interlude & Solo        R6 w/F1
                        R7 repeat four times w/S2
                        R7 repeat four times w/S3
Intro                   R1 repeat two times
Retribution!    R5 repeat three times
Chorus          R1 repeat six times

NOTE :-  Some sections in the solos may be wrong as the lead guitar is
either masked by 'wah' or just hard to hear.  Additionally the timing is
all over the place so just listen to the song. Please post corrections!
Nothing more to say, but HERE IT IS    2 x 4
                         ^^^^^^^^^^^^^^^^^^^
TUNE DOWN HALF A STEP OR TO E FLAT
  (Intro - R1)
E | -||:- - - - - - - - - - - - - - - - - - - - - - - - :||
B | -||:- - - - - - - - - - - - - - - - - - - - - - - - :||
G | -||:- - - - - - - - - - - - - - - - - - - - - - - - :||
D | 2||:2 5~7 8 - - 2 5~7 8 - - 2 5~7 2 - - 2 5~7 2 - - :||
A | 2||:2 5~7 8 - - 2 5~7 8 - - 2 5~7 2 - - 2 5~7 2 - - :||
E | 0||:0 3~5 6 - - 0 3~5 6 - - 0 3~5 0 - - 0 3~5 0 - - :||

  (R2)
E |  ||:- - - - - - - - - - - - - - - - - - - - - - - - :||
B |  ||:- - - - - - - - - - - - - - - - - - - - - - - - :||
G |  ||:- - - - - - - - 9 - - - - - 9 - - - - - - - - - :||
D |  ||:2 - 2 5 - 2 7~8 9 - - - 7~8 9 - - - 8 - - 7 - 5 :||
A |  ||:2 - 2 5 - 2 7~8 7 - - - 7~8 7 - - - 8 - - 7 - 5 :||
E |  ||:0 - 0 3 - 0 5~6 - - - 0 5~6 - - - 0 6 - 0 5 - 3 :||

(R3w/R2 - Played with wah and semi-artificial harmonics)
E |  ||:- - - - - - - - - - - - - - - - - - - - - - - - :||
B |  ||:- - - - - - - - - - - - - - - - - - - - - - - - :||
G |  ||:- - - - - - - - - - - - - - - - - - - - - - - - :||
D |  ||:- - - - - - - - 9 - - - - - 9 - - - - - - - - - :||
A |  ||:- - - 5 - - 7~8 - - - - 7~8 - - - - 8 - - 7 - 5 :||
E |  ||:7 - 7 - - 7 - - - - - 7 - - - - - 7 - - 7 - - - :||

  (Verses - R4)
E |  ||:- - - - - - - - - - - - - - - - - - - - - - - - :||
B |  ||:- - - - - - - - - - - - - - - - - - - - - - - - :||
G |  ||:- - - - - - - - - - - - - - - - - - - - - - - - :||
D |  ||:2 - 2 5 - 2 7 - 2 - - 8~7 - 5 - - 8~7 - 5 - - - :||
A |  ||:2 - 2 5 - 2 7 - 2 - - 8~7 - 5 - - 8~7 - 5 - - - :||
E |  ||:0 - 0 3 - 0 5 - 0 - - 6~5 - 3 - - 6~5 - 3 - - - :||

(Retribution - R5)
E | -||:- - - - - - - - - - - - - - - - - - - - - - - - :||
B | -||:- - - - - - - - - - - - - - - - - - - - - - - - :||
G | -||:- - - - - - - - - - - - - - - - - - - - - - - - :||
D | 2||:2 5~7 8 - - - - - - - - 2 5~7 2 - - - - - - - - :||
A | 2||:2 5~7 8 - - - - - - - - 2 5~7 2 - - - - - - - - :||
E | 0||:0 3~5 6 - - - - - - - - 0 3~5 0 - - - - - - - - :||

  (Chorus - R1)
E | -||:- - - - - - - - - - - - - - - - - - - - - - - - :||
B | -||:- - - - - - - - - - - - - - - - - - - - - - - - :||
G | -||:- - - - - - - - - - - - - - - - - - - - - - - - :||
D | 2||:2 5~7 8 - - 2 5~7 8 - - 2 5~7 2 - - 2 5~7 2 - - :||
A | 2||:2 5~7 8 - - 2 5~7 8 - - 2 5~7 2 - - 2 5~7 2 - - :||
E | 0||:0 3~5 6 - - 0 3~5 6 - - 0 3~5 0 - - 0 3~5 0 - - :||

(Solo - S1w/wah)
E | -|| - - - - - - - -12 - - - - - - - - - - - - - - -  ||
B | -|| -15- -15- - - - - 12- - - - - - - - - - - - - -  ||
G | -|| -14- -14/ - - - - - -14-12- - 12-14^12-14 - -12  ||
D | -|| - - - - - - - - - - - - - -14 - - - - - - 14- -  ||
A | -|| - - - - - - - - - - - - - - - - - - - - - - - -  ||
E | -|| - - - - - - - - - - - - - - - - - - - - - - - -  ||
  (Solo - S1w/wah)
E | -|| - - - - - - - - - - - - - - - - - - - - - - - -  ||
B | -|| -15/- - - - - - - - - - - - - - - - - - - - - -  ||
G | -|| - - 16/^^^^^^^14^12 14- - 12-14^12- - - - - - -  ||
D | -|| - - - - - - - - - - - -14 - - - - -14 - - - - -  ||
A | -|| - - - - - - - - - - - - - - - - - - - - - - - -  ||
E | -|| - - - - - - - - - - - - - - - - - - - - - - - -  ||

(Solo - S1w/wah)
E | -|| - - - - - - - - - - - - - - - - - - - - - - - -  ||
B | -|| - - - - - - - - - - - - - - - - - - - - - - - -  ||
G | -|| - - - - - - - - - - - - - - - - - - - - - - - -  ||
D | -|| - - - - - - - - - - - - - - 14-15-17- - - - - -  ||
A | -|| - - - - - 12-14-15-14-15-17 - - - - - - - - - -  ||
E | -|| -12 13-15 - - - - - - - - - - - - - - - - - - -  ||

  (Solo - S1w/wah)
E | -|| -19P15- - 19P15 - -19P15-19P15- - 19P15 - -19P15 ||
B | -|| - - - -17 - - - 17- - - - - - -17 - - - 17- - -  ||
G | -|| - - - - - - - - - - - - - - - - - - - - - - - -  ||
D | -|| - - - - - - - - - - - - - - - - - - - - - - - -  ||
A | -|| - - - - - - - - - - - - - - - - - - - - - - - -  ||
E | -|| - - - - - - - - - - - - - - - - - - - - - - - -  ||

(Solo - S1w/wah)
E | -|| -19P15- - 19P15 - -19P15-19P15- - 19P15 - -19P15 ||
B | -|| - - - -17 - - - 17- - - - - - -17 - - - 17- - -  ||
G | -|| - - - - - - - - - - - - - - - - - - - - - - - -  ||
D | -|| - - - - - - - - - - - - - - - - - - - - - - - -  ||
A | -|| - - - - - - - - - - - - - - - - - - - - - - - -  ||
E | -|| - - - - - - - - - - - - - - - - - - - - - - - -  ||

(Solo - S1w/wah)
E | -|| -19^17-15 17-15 - -15 - - - - - - - - - - - - -  ||
B | -|| - - - - - - - - 19- - 19-17 19-15 15/ 15/15/15/  ||
G | -|| - - - - - - - - - - - - - - - - - - - - - - - -  ||
D | -|| - - - - - - - - - - - - - - - - - - - - - - - -  ||
A | -|| - - - - - - - - - - - - - - - - - - - - - - - -  ||
E | -|| - - - - - - - - - - - - - - - - - - - - - - - -  ||

  (Interlude - R6)
E | |- - - - - - - - - - - - - - - - - - - - - - - - - - - - - - - - -|
B | |- - - - - - - - - - - - - - - - - - - - - - - - - - - - - - - - -|
G | |- - - - - - - - - - - - - - - - - - - - - - - - - - - - - - - - -|
D | |2 - - - 5 - - - 7 - - - 3 - 3 3 3 3 3 3 3 3 3 3 3 3 3 3 3 - 3 - 3|
A | |2 - - - 5 - - - 7 - - - 3 - 3 3 3 3 3 3 3 3 3 3 3 3 3 3 3 - 3 - 3|
E | |0 - - - 3 - - - 5 - - - 1 - 1 1 1 1 1 1 1 1 1 1 1 1 1 1 1 - 1 - 1|

(Interlude - F1w/R6)
E | | - - - - - - - - - - - - - - - - - - - - - - - - - - - - - - - - |
B | | - - - - - - - - - - - - - - - - - - - - - - - - - - - - - - - - |
G | |9- - - - 9 - - - 9 - - - - - - - - - - - - - - - - - - - - - - - |
D | | -9- - - - 9 - - - 9 - - - - - - - - - - - - - - - - - - - - - - |
A | | - -12 10- - 12-10 - 12-10 - - - - - - - - - - - - - - - - - - - |
E | | - - - - - - - - - - - - -\- - - - - - - - - - - - - - - - - - - |

  (R7)
E | -||: - - - - - - - - - - - - - - - - :||
B | -||: - - - - - - - - - - - - - - - - :||
G | -||: - - - - - - - - - - - - - - - - :||
D | -||: 2 - - - 5 - - - 7 - - - 5 - - - :||
A | -||: 2 - - - 5 - - - 7 - - - 5 - - - :||
E | -||: 0 - - - 3 - - - 5 - - - 3 - - - :||

(Solo - S2w/wah)
E | -|| - - - - - - - - - - - - - - - - - - - - - - - - - - ||
B | -|| 15- - - - - - - - - - - - - - - - - - - - - - - - - ||
G | -|| 14/ -14/ 14 12- 14-12 -14-12 11 - 12-11 - - - - - - ||
D | -|| - - - - - - - - - - - - - - - - - - - - -14 14H16P14||
A | -|| - - - - - - - - - - - - - - - - - - - - - - - - - - ||
E | -|| - - - - - - - - - - - - - - - - - - - - - - - - - - ||

  (Solo - S2w/wah)
E | -|| - - - - - - - - - - - - - - - - - - - - - - - -  ||
B | -|| - - - - - - - - - - - - - - - - - - - - - - - -  ||
G | -|| - - - - - - - - - - - - - - - - - - - - - - - -  ||
D | -|| 12-14-12- - - - - - - - - - - - - - - - - - - -  ||
A | -|| - - - - - 12-14 12- - 12-14-12- - - - - - - - -  ||
E | -|| - - - - - - - - - - - - - - - -15 14-12 10 10~12 ||

(Solo - S2w/wah)
E | -|| - - - - - - - - - - - - - - - - - - - - - 12- -  ||
B | -|| 15 15 15-15 - - - 15-15-15- - - - - 15/15/- 15 12||
G | -|| 14/14/14/14 12 14 14/14/14-12 14- - - - - - - -  ||
D | -|| - - - - - - - - - - - - - - - - - - - - - - - -  ||
A | -|| - - - - - - - - - - - - - - - - - - - - - - - -  ||
E | -|| - - - - - - - - - - - - - - - - - - - - - - - -  ||

  (Solo - S2w/wah)
E | -|| - - - - - - - - - - - - -12 12 12 - 12-15/15 12  ||
B | -|| - - - - - - - - - - - 15- - - - - 15- - - - - -  ||
G | -|| 14/12 14- - - - - - - - - - - - - - - - - - - -  ||
D | -|| - - - - - 12~14 12- - - - - - - - - - - - - - -  ||
A | -|| - - - - - - - - - - - - - - - - - - - - - - - -  ||
E | -|| - - - - - - - - - - - - - - - - - - - - - - - -  ||

(Solo - S2w/wah)
E | -|| 12 15 12-15 17/-15-  ||
B | -|| - - - - - - - - - -  ||
G | -|| - - - - - - - - - -  ||
D | -|| - - - - - - - - - -  ||
A | -|| - - - - - - - - - -  ||
E | -|| - - - - - - - - - -  ||

  (Solo - S3w/wah)
E | -|| - - - - - - - - - - - - - - - - - - - - - - - -  ||
B | -|| 15  15- -12H15P12 - - - - - - - - - - - - - - -  ||
G | -|| 14/ 14/ - - - - - -12H14P12 - -12H14P12 11- - -  ||
D | -|| - - - - - - - - - - - - - - - - - - - - - - - -  ||
A | -|| - - - - - - - - - - - - - - - - - - - - - - - -  ||
E | -|| - - - - - - - - - - - - - - - - - - - - - - - -  ||

 (Solo - S3w/wah)
E | -|| - - - - - - - - - - - - - - - - - - - - - - - -  ||
B | -|| - - - - - - - - - - - - - - - - - - - - - - - -  ||
G | -|| -12-11H12P11- 12-11 - -12 - - - - - - - - - - -  ||
D | -|| - - - - - - - - - - 14- - 12- - - - - - - - - -  ||
A | -|| - - - - - - - - - - - - - - -12 12~14 - 14 141414||
E | -|| - - - - - - - - - - - - - - - - - - - - - - - -  ||

   (Solo - S3w/wah)
E | -|| - - - - - - - - - - - - - - - - - - - - - - - - - - -  ||
B | -|| - - - - - - - - - - - - - - - - - - - - - - - - - - -  ||
G | -|| - - - - - - - - - - - - - - - 121212121212121212121212 ||
D | -|| - - - - - - - - - - - - 12 14 - - - - - - - - - - - -  ||
A | -|| -12 -15-1515-12 151515- - - - - - - - - - - - - - - -  ||
E | -|| - - - - - - - - - - - - - - - - - - - - - - - - - - -  ||

(Solo - S3w/wah)
E | -|| - - - - - - - - -12 - - - - - - - - - - - - - -  ||
B | -|| -15/-15^12- - -12 - 15-12 - -12 - - - - - - - -  ||
G | -|| - - - - - - 14/ - - - - - 14- - - - 14- - 12- -  ||
D | -|| - - - - - - - - - - - - - - - - 14- - -14 - - -  ||
A | -|| - - - - - - - - - - - - - - - - - - - - - - - -  ||
E | -|| - - - - - - - - - - - - - - - - - - - - - - - -  ||

  (Solo - S3w/wah)
E | -|| - 17/ 17/17/17^15- - 15 - - - - - - - - - - -12  ||
B | -|| - - - - - - - - - 17- - - - 15/ 15^12 - - -12 -  ||
G | -|| - - - - - - - - - - - - - - - - - - - - 14/ - -  ||
D | -|| - - - - - - - - - - - - - - - - - - - - - - - -  ||
A | -|| - - - - - - - - - - - - - - - - - - - - - - - -  ||
E | -|| - - - - - - - - - - - - - - - - - - - - - - - -  ||

(Solo - S3w/wah)
E | -|| - 15 12 12H15P12- - -12 - - - - - - -  ||
B | -|| - - - - - - - - - 15- - 12-15 12 15 -  ||
G | -|| - - - - - - - - - - - - - - - - - - -  ||
D | -|| - - - - - - - - - - - - - - - - - - -  ||
A | -|| - - - - - - - - - - - - - - - - - - -  ||
E | -|| - - - - - - - - - - - - - - - - - - -  ||

  (Solo - S3w/wah)
E | -|| - - - - - 14- - 14-19 - -19-22/ - - -  ||
B | -|| -12 - -12 - -15 - - - 20- - - - - - -  ||
G | -|| - - 12- - - - - - - - - - - - - - - -  ||
D | -|| - - - - - - - - - - - - - - - - - - -  ||
A | -|| - - - - - - - - - - - - - - - - - - -  ||
E | -|| - - - - - - - - - - - - - - - - - - -  ||

           .-/                                       .-.
        _.-~ /  _____  ______ __  _    _     _   ___ | ~-._
        \:/  -~||  __||_  __//  || |  | |  /| | / __/| .\:/
         /     ||  __|:| |\:/ ' || |__| |_/:| || (:/:|   \
        / /\/| ||____|:|_|:/_/|_||____|____||_|:\___\| |\ \
       / /:::|.:\::::\:\:\:|:||:||::::|:::://:/:/:::/:.|:\ \
      / /:::/ \::\::::\|\:\|:/|:||::::|::://:/\/:::/::/:::\ \
     /  .::\   \-~~~~~~~ ~~~~  ~~ ~~~~~~~~ ~~  ~~~~~-/\/:..  \
    /..:::::\                                         /:::::..\
   /::::::::-               John Buttery              -::::::::\
   \:::::-~            satan@mail.utexas.edu            ~-:::::/
    \:-~          http://ccwf.cc.utexas.edu/~arno/         ~-:/