From: Brian F Mojica 
Subject: TAB: SHE'S MY BABY by Mazzy Star

She's My Baby
(Sandoval/Roback)
from the album "So Tonight That I Might See"
tabbed by Brian Mojica 

h = hammer on
p = pull off
/ = slide up
\ = slide down
~ = vibrato
^ = bend (half-, full-, two-steps etc. specified)
rb=release bend

          G
|-3-3-3-|-3-------3-------3---3-3---3-3-3-|-3-------3-------3---3-3---3-3-3-|
|-2-2-2-|-3-------3---2---3---3-3---2-2-2-|-3-------3---2---3---3-3---2-2-2-|
|-0-0-0-|-0---0---0---0---0---0-0---0-0-0-|-0---0---0---0---0---0-0---0-0-0-|
|-0-0-0-|-0---0---0---0---0---0-0---0-0-0-|-0---0---0---0---0---0-0---0-0-0-|
|-------|---------------------------------|---------------------------------|
|-------|---------------------------------|---------------------------------|

|-3-------3-------3---3-3---3-3-3-|-3-------3-------3---3-3---3-3-3-|
|-3-------3---2---3---3-3---1-1-1-|-0---0---0---0---0---0-0---2-2-2-|
|-0---0---0---0---0---0-0---0-0-0-|-0---0---0---0---0---0-0---0-0-0-|
|-0---0---0---0---0---0-0---0-0-0-|-0---0---0---0---0---0-0---0-0-0-|
|---------------------------------|---------------------------------|
|---------------------------------|---------------------------------|

>Play throughout

Articles liés :

Pin It on Pinterest

Spelling error report

The following text will be sent to our editors: