From: "frederic briere" 
Subject: l/lynyrd_skynyrd/whats_your_name.tab
Date: Wed, 17 Jul 2002 16:29:29 -0400

Song : What's your name
Artist : Lynyrd Skynyrd
Tabbed by : Frederic Briere
Ilie_cobra@hotmail.com

h - hammer on
p - pull off
b - bend string up
bb- 1 1/2 tone bend
H - hold bend
r - release bend
/ - slides
~ - vibrato
t - right hand tap
x - play 'note' with heavy damping


E----------------------------------------------------------
B----------------------------------------------------------
G----------------------10p9-7------7----7------------------
D---5---6/7---9p7------10p9-7------7----7------------------
A---3---4/5---5-----------------------9--------------------
E----------------------------------------------------------

E----------------------------------------------------------
B----------------------------------------------------------
G----------------------------------------------------------
D------------------------------------------5-4-2-------2---
A-------4--5-7p5----7p5-----5------------0-3/2-0---4-5-0---
E----0--2--3-----3------3---3----------------------2-3-----


Verse

E----------------------------------------------------------
B----------------------------------------------------------
G----------------------------------------------------------
D-2----2--4-------2h4------2-----2---4-------2h4-----------
A-0----0------0------------0-----0-------0-----------------
E----------------------------------------------------------

E----------------------------------------------------------
B----------------------------------------------------------
G------------------------------2---------------------------
D--------------------------2-----4-----2h4--2--------------
A---5---9--7-----7h9-------0--------0-------0--------------
E---3---------3--------------------------------------------

E----------------------------------------------------------
B----------------------------------------------------------
G-------2----------------------2---------------------------
D---2------4-----2h4-------2-----4-----2h4-----------------
A---0---------0------------0--------0----------------------
E----------------------------------------------------------


E--------------------------------2---3---3/4---------------
B--------------------------0-----1---2---2/3---------------
G--------------------------1-----2---3---3/4---------------
D--------------------------2-------------------------------
A---2----2--4------2h4-------------------------------------
E---0----0-----0-------------------------------------------

E----------------------------------------------------------
B----------------------------------------------------------
G----------------------------------------------------------
D-2----2--4-------2h4------2-----2---4-------2h4-----------
A-0----0------0------------0-----0-------0-----------------
E----------------------------------------------------------


E----------------------------------------------------------
B------------------------------------8----8----------------
G------------------------------------7----7----------------
D--------------------------7---7-----5----5----------------
A---5---9--7-----7h9-------5---5---------------------------
E---3---------3--------------------------------------------

E----------------------------------------------------------
B----------------------------------------------------------
G----------------------------------------------------------
D----2---2---4------2h4------------------------------------
A----0---0------0---------2----2---4-------2h4-------------
E-------------------------0----0-------0-------------------

E----------------------------------------------------------
B----------------------------------------------------------
G---------2------------------------------------------------
D----2-------4-----2h4-------------------------------------
A----0----------0------------------------------------------
E----------------------------------------------------------

Chorus

Repeat twice


E----------------------------------------------------------
B----------------------------------------------------------
G----------------------10p9-7------7----7------------------
D-----5/6/7---9p7------10p9-7------7----7------------------
A-----3/4/5---5-----------------------9--------------------
E----------------------------------------------------------

E----------------------------------------------------------
B----------------------------------------------------------
G----------------------------------------------------------
D----------------------------------------------------------
A---------4--5----5--7p5--5--5---7p5---5--5----7p5---------
E------0--2--3----3--3----3--3---3-----3--3----3-----------


Then


E----------------------------------------------------------
B----------------------------------------------------------
G----------------------------------------------------------
D--------5-4--2--------------------------------------------
A----0---3/2--0---4-5--------------------------------------
E-----------------2-3--------------------------------------

Verse 2

Chorus 2


Then solo


E----------------------------------------------------------
B-------------------------------------17-17-----17-17------
G------------------14-16b-16b----16b--------16b------------
D----------14--16------------------------------------------
A-----/16--------------------------------------------------
E----------------------------------------------------------


E----------------------------------------------------------
B---------17-17--------------------------------------------
G----16b---------16brp14------14h16~-----------14-16-16p14-
D-------------------------16-------------14h16-------------
A----------------------------------------------------------
E----------------------------------------------------------

E----------------------------------------------------------
B----------------------------------------------------------
G--------14~-----------14-16-16p14-----14---16b------------
D----16----------14h16-------------16----------------------
A----------------------------------------------------------
E----------------------------------------------------------

E----------------------------------------------------------
B----------------------------------------------------------
G----------14----------------14----------------------------
D----14-16----16-------14-16-----16/14----14---------------
A--------------------------------------------16/14-12------
E----------------------------------------------------------

E----------------------------------------------------------
B----------------------------------------------------------
G----------------------------------------------------------
D----------------------------------------------------------
A----14-14p12------12~----------------12--14-14p12----12~--
E--------------14--------------12h14---------------14------

E----------------------------------------------------------
B----------------------------------------------------------
G-----------------------14~-----14-------14-14-------14-14-
D----------14~-----/16-------16----14h16-------14h16-------
A-----/16--------------------------------------------------
E----------------------------------------------------------


E----------------------------------------------------------
B----------------------------------------------------------
G----------14-14-------14-14-------14-14-------14-14-------
D----14h16-------14h16-------14h16-------14h16-------------
A----------------------------------------------------------
E----------------------------------------------------------

E----------------------------------------------------------
B----------------------------------------------------------
G----------14-16-16p14----14-------------14----------------
D----14h16-------------16----------14-16-----16~-----------
A----------------------------------------------------------
E----------------------------------------------------------

Chorus 3

Verse

Chorus 4


End