From: "Mackin Johnson" 
From: "frederic briere" 
Subject: l/lynyrd_skynyrd/voodoo_lake.tab
Date: Fri, 31 May 2002 14:53:38 -0400

Artist : lynyrd skynyrd
Song : voodoo lake
Tabbed by : Frederic Briere
Ilie_cobra@hotmail.com

h - hammer on
p - pull off
b - bend string up
bb- 1 1/2 tone bend
H - hold bend
r - release bend
/ - slides
v - vibrato
t - right hand tap
x - play 'note' with heavy damping

This song is played drop D (that means the last string usually E is tuned in 
D)


Intro (guitar 1)

E----------------------------------------------------------
B---1h3------3-----3----1h3-----3------3-------------------
G---2--------2-----2----2-------2------2-------------------
D---0-----0-----0-------0----0------0-----0----------------
A----------------------------------------------------------
D----------------------------------------------------------

Guitar 2

E----------------------------------------------------------
B----------------------------------------------------------
G--------7-------------------------------------------------
D----9b-----9br--7v----------------------------------------
A----------------------------------------------------------
D----------------------------------------------------------

    Finger picking, pinch the strings

E----------------------------------------------------------
B-------3-5b--r--3--5-3/1--3v------------------------------
G----5-----------------------------------------------------
D----------------------------------------------------------
A----------------------------------------------------------
D----------------------------------------------------------

E----------------------------------------------------------
B----------------------------------------------------------
G--------7-------------------------------------------------
D----9b-----9br--7v----------------------------------------
A----------------------------------------------------------
D----------------------------------------------------------

E----------------------------------------------------------
B----------------------------------------------------------
G----------------------------------------------------------
D----------------------------------------------------------
A----------------------------------------------------------
D-----/10-9-7-5-3-5-3/2--0---------------------------------


Main Riff


E----------------------------------------------------------
B----------------------------------------------------------
G----------------------------------------------------------
D------3p0---------------------0---------------------------
A---0-------0--3/5---5p0---------------3--5----------------
D-------------------------3/5------0---3--5----------------


E----------------------------------------------------------
B------------------------------------------3---------------
G------------------------------------------2---------------
D--------3p0-------------------------------0---------------
A---0----------0---3/5----5p0----3/5/3---------------------
D--------------------------------3/5/3----(0)--------------



Verse

E----------------------------------------------------------
B----------------------------------------------------------
G----------------------------------------------------------
D----7-7--5/7---7-7---5/7----7-7---5/7---------------------
A----5-5--3/5---5-5---3/5----5-5---3/5----5-5--3/5---------
D-----------------------------------------5-5--3/5---------


Chorus

E----------------------------------------------------------
B----------------------------------------------------------
G----------------------------------------------------------
D------------------------------7-7---5-7-------------------
A----5-5---3-5----5-5---3-5----5-5---3-5----5-5---3-5------
D----5-5---3-5----5-5---3-5-----------------5-5---3-5------


E----------------------------------------------------------
B----------------------------------------------------------
G----------------------------------------------------------
D----------------------------------------------------------
A----5-5---3-5----5-5---3-5-----7-7---5-7-----10-10-10-----
D----5-5---3-5----5-5---3-5-----7-7---5-7-----10-10-10-----



Interlude (repeat twice)

E----------------------------------------------------------
B-------3-----3-----3-----3-----3-----3------3-------------
G-------2-----2-----2-----2-----2-----2------2-------------
D----0-----0-----0-----0-----0-----0------0----------------
A----------------------------------------------------------
D----------------------------------------------------------

E----------------------------------------------------------
B--------3-------3------3----------------------------------
G--------0-------0------0----------------------------------
D--------0-------0------2----------------------------------
A----2-------2----------3----------------------------------
D----------------------------------------------------------



Outro (again pinch the strings)
                                                  detune
E----------------------------------------------------------
B----------------------------------------------------------
G----------------------------------------------------------
D------------0---3b---0------------------------------------
A-------5p3--------------0---3--5--3----0------------------
D----0--------------------------------------3/2v---0-------

E----------------------------------------------------------
B----------------------------------------------------------
G----------------------------------------------------------
D-------------0---3b---0------------------5/3------0-------
A-------5p3---------------0---3-5-3---0---5/3--5-----------
D----0-----------------------------------------------------

Repeat until the end.