From: "frederic briere" 
Subject: l/lynyrd_skynyrd/the_last_rebel.tab
Date: Fri, 31 May 2002 22:27:09 -0400

Artist : lynyrd skynyrd
Song : The last rebel
Tabbed by : Frederic Briere
Ilie_cobra@hotmail.com

h - hammer on
p - pull off
b - bend string up
bb- 1 1/2 tone bend
H - hold bend
r - release bend
/ - slides
~ - vibrato
t - right hand tap
x - play 'note' with heavy damping


    Am            C/D        C

E----------------------------------------------------------
B---------1-----------3---------1--------------------------
G-------2---2-----------0---------0------------------------
D--------------2-2/4-------4/2-----------------------------
A----0-----------------------------------------------------
E----------------------------------------------------------

    C          C/D     C

E----------------------------------------------------------
B----------1-----------------------------------------------
G--------0---------0-------0-------------------------------
D------2-------------4-------2-----------------------------
A----3---------3/5-----5/3---------------------------------
E----------------------------------------------------------

     Am             C/D      C


E---------------0-------0--------0-------------------------
B-------------1---1-------1------1-------------------------
G-------2---2----------------------------------------------
D---------2---------2/4-----4/2----------------------------
A-----0----------------------------------------------------
E----------------------------------------------------------


     F    G

E----------------------------------------------------------
B----------------------------------------------------------
G----------------------------------------------------------
D----3----/5-----------------------------------------------
A----3----/5-------3v--------------------------------------
E----1----/3-----------5-----------------------------------


Verse (repeat main riff)

Play this line before chorus


    C        C/D

E----------------------------------------------------------
B----------------------------------------------------------
G--------0-------0-----------------------------------------
D------2---2---4---4---------------------------------------
A----3-------5---------------------------------------------
E----------------------------------------------------------


Chorus

Repeat 4 times

     Am                  G             C

E----0---------5/--------3---3-----------------------------
B----1---------5/--------3---3---------1-------------------
G----2---------5/--------0---0---------0-------------------
D----2---------5/--------0---0---------2-------------------
A----0-------------------2---2---------3-------------------
E------------------------3---3-----------------------------

Then

    F        G

E---1--------3---------------------------------------------
B---1--------3---------------------------------------------
G---2--------4---------------------------------------------
D---3--------5---------------------------------------------
A---3--------5---------------------------------------------
E---1--------3---------------------------------------------

Guitar 2

E-----5v---7b-7bb-7v--------5v---7b-8b--10b---10*br-8------
B-----------------------------------------------------10---
G----------------------------------------------------------
D----------------------------------------------------------
A----------------------------------------------------------
E----------------------------------------------------------

Verse 2

Chorus 2

Then

Interlude is F and G, pretty simple


E-------------------------------------------5-8v-----------
B---------------------------------------5-8----------------
G-------------5b-------5-7b-----5---5-7--------------------
D----7---5-7---------7------------7------------------------
A----------------------------------------------------------
E----------------------------------------------------------


Solo :


E-----17------17--17--------17--17--17----17--17--17-------
B-----20b-----20b-20br--17--20b-20b-20br--20b-20b-20b------
G----------------------------------------------------------
D----------------------------------------------------------
A----------------------------------------------------------
E----------------------------------------------------------

E----17----17----17----17----17----17----17----------------
B----20b-r-20b-r-20b-r-20b-r-20b-r-20b-r-20b-r-------------
G----------------------------------------------------------
D----------------------------------------------------------
A----------------------------------------------------------
E----------------------------------------------------------

E-----12-------12-------12-------12-------12---------------
B--------13-------13-------13-------13-------13------------
G-----------14-------14-------14-------14-------14---------
D----------------------------------------------------------
A----------------------------------------------------------
E----------------------------------------------------------

E----------------------------------------------------------
B-----5-------5v--------5-----5-----5----------------------
G-------5---5-------5-----5-----5-----5--------------------
D---------7-----------7-----7-----7------------------------
A----------------------------------------------------------
E----------------------------------------------------------

E----------------------------------------------------------
B----------------------------------------------------------
G----------------------------------------------------------
D----------------------------------------------------------
A-----7-3---7-3---7-3---7-3----7-3-------------------------
E---------5-----5-----5-----5------5-3-5-------------------

E----------------------------------------------------------
B-------------------5--------------------------------------
G--------------5----5----5-7br-----------------------------
D-----7-----/7---7-----7-------7---------------------------
A----------------------------------------------------------
E----------------------------------------------------------

E-----------------------------------------------------20---
B-----------------------------17-------17-20p17----20------
G-----14----14-16-17-16-17-19----17-19----------19---------
D--------17------------------------------------------------
A----------------------------------------------------------
E----------------------------------------------------------

E----17v---------------------------------------------------
B----------------------------------------------------------
G----------------------------------------------------------
D----------------------------------------------------------
A----------------------------------------------------------
E----------------------------------------------------------


Have fun for the last part.