Date: Thu, 25 Dec 1997 18:11:33 +0100
From: higgins@seas.smu.edu (Gregory Higgins)
From: ernst.horvath@iic.wifi.at (Horvath Ernst)
Subject: l/lynyrd_skynyrd/sweet_home_alabama.tab

 Sweet Home Alabama
 Lynyrd Skynyrd

The two versions I could find are good, but they both miss
some parts. So here is the complete song, unfortunately
without the solo, but I am working on it. I don^^t know if that^^s
the exact way to play it, but it sounds good so have fun with it.
(Roli)

Intro

|------------------|------------------|------------------|
|-------3----------|--------3---------|-----------3------|
|----------2-------|-----------0------|-----------0------|
|-0--0----------0--|------------------|-----------0------|
|------------------|-3p0h3--------3---|-----------2------|
|------------------|------------------|--3p0h3----3------|

|------------------|------------------|------------------|
|------------------|-------3----------|---------3--------|
|-------------2p0--|----------2-------|------------0-----|
|-----0h2p2--------|-0--0--------0----|------------------|
|-0h2-------2------|------------------|--3p0h3--------3--|
|------------------|------------------|------------------|

|------------------|------------------|------------------|
|---------3--------|------------------|--------3---------|
|---------0--------|0-0-2p0-0-4h0-0-5b|-----------2------|
|---------0--------|------------------|--0--0----------0-|
|---------2--------|------------------|------------------|
|-3p0h3---3--------|------------------|------------------|

|------------------|------------------|------------------|
|--------3---------|-----------3------|------------------|
|-----------0------|-----------0------|-------------2p0--|
|------------------|-----------0------|-----0h2h0--------|
|-3p0h3--------3---|-----------2------|-0h2-------2------|
|------------------|--3p0h3----3------|------------------|

|------------------|------------------|------------------|
|-------3----------|--------3---------|---------3------3-|
|----------2-------|-----------0------|---------0------0-|
|-0--0----------0--|------------------|---------0------0-|
|------------------|-3p0h3--------3---|---------2------2-|
|------------------|------------------|--3p0h3--3--3-3-3-|

There are different ways to play along the verses and the chorus. I
actually use all of them to make the song sound more exciting and they
are also good to play the song with two guitars. The first possibility
is to repeat the picking of the intro.The second one is just to play the
chords like that and add one of the little licks each time before you
start over:


|---------2----|-----------0-----|----------3------|
|---------3----|-----------1-----|----------0------|
|---------2----|-----------0-----|----------0------|
|--0--0---0----|-----------2-----|----------0------|
|--------------|---3p0h3---3-----|----------2------|
|--------------|-----------------|---3p0h3--3------|

The little licks are as follows:
 Lick 1 Lick2 Lick3
|------------------||------------------||-------------------||
|------------------||------------------||-------------------||
|-------------2p0--||0-0-2p0-0-4p0-0-5b||----0-----0-----0--||
|-----2p0h2--------||------------------||0h2---0h2---0h2----||
|-0h2-------2------||------------------||-------------------||
|------------------||------------------||-------------------||

The third possibility is as follows:

|--------------|--------------|-------------|-------------||
|--------------|--------------|-------------|-------------||
|--7--7--7--7--|--5--5--5--5--|-------------|-------------||
|--7--7--9--7--|--5--5--7--5--|--5--5----5--|----5-5-5-5--||
|--5--5--5--5--|--3--3--3--3--|--5--5----5--|----5-5-7-5--||
|--------------|--------------|--3--3----3--|----3-3-3-3--||

Date: Sun, 13 Jul 2003 00:24:08 EDT
From: Albonitron@aol.com
Subject: l/lynyrd_skynyrd/sweet_home_alabama.tab


Author: lynyrd skynyrd
Song: sweet home alabama
Subject: correction on riff


the tab is great but i had a little correction on the part inbetween the
verses and the chorus.

--------------------------------------------------------------
--------------------------------------------------------------
---------7-------55-------------------------------------------
----------7------55----------5tremelo-------------------------
-7h8h9--------5-------5h6h7-----------------------------------
--------------------------------------------------------------
well, there it is


Date: Thu, 31 May 2001 17:38:14 -0400
From: Mark Hufford 
Subject: l/lynyrd_skynyrd/sweet_home_alabama.tab

The two solos.

#-----------------------------------------------------------------------------#
#-- File created with Instab -
http://www.pconline.com/~smcarey/instab.html --#
#-----------------------------------------------------------------------------#

Author/Artist: Lynyrd Skynyrd
Title: Sweet Home Solo

fendermonkey77@yahoo.com

b-bend
r-release
h-hammer on
p-pull off
/-slide up
\-slide down
SOLO 1

-15b17r15-14------------------------------------------------------------------
-------------15--15--108------------------------------------------------------
-------------------------11-10-8-10---8---8-10---10b12-----8-10-8-10b12-------
------------------------------------9----------9--------7/9-------------------
------------------------------------------------------------------------------
------------------------------------------------------------------------------


------------------------------------------------------------------------------
---------8-10---8-10b12r10-8-8-------8----------------------------------------
-7---8-9------9----------------9\7/9---7--------------------------------------
-----------------------------------------9b10r9-5-0-0-------------------------
------------------------------------------------------------------------------
------------------------------------------------------------------------------


SOLO 2

------------------------------------------------------------------------------
---------------------------------------------------8---8/10b13-10b12-8---9----
------0-2/4-2-2-2b4-2b4-2b4-2-2b4r2b3r2-0---0-0-/9---9-----------------9------
--0h2-------------------------------------2-----------------------------------
------------------------------------------------------------------------------
------------------------------------------------------------------------------


------------------------------------------------------------------------------
------------------------------------------------------------------------------
-9\7--7-7-7-7-7---9-7--7------12----12h14p12----12h17p12----12h17p12----------
----------------9--------9/14----14----------14----------14----------14-------
------------------------------------------------------------------------------
------------------------------------------------------------------------------


------------------------------------------------------------------------------
------------------------------------------------------------------------------
-12h16p12----12h16p12----12h16p12----12h16p12----12h16p12----12h14p12---------
----------14----------14----------14----------14----------14----------14------
------------------------------------------------------------------------------
------------------------------------------------------------------------------


------------------------------------------------------------------------------
------------------------------------------------------------------------------
-12h14p12----12h17p12----12h17p12----12h17p12----12----------12----------12---
----------14----------14----------14----------14----14----------14\12/14------
-------------------------------------------------------13/14------------------
------------------------------------------------------------------------------


----------------------12----12h15-15-15-15-15-15-15-15-15-15-15-15-15-15-15---
----------12----12h15----15---------------------------------------------------
----12h14----14---------------------------------------------------------------
-14---------------------------------------------------------------------------
------------------------------------------------------------------------------
------------------------------------------------------------------------------


-13b--12----12-------12-------12-------12-------12----------12-------12-------
---------15----15b17----15b17----15b17----15b17----13----------15b17----------
------------------------------------------------------14b16-------------------
------------------------------------------------------------------------------
------------------------------------------------------------------------------
------------------------------------------------------------------------------


------------------------------------------------------------------------------
-15p12----12------------------------------------------------------------------
-------15----15p14-12---------------------------------------------------------
----------------------14-12---------------------------------------------------
----------------------------14\12-10-10-10-12----10/12-12-10----10-10---10----
----------------------------------------------12-------------12---------------


------------------------------------------------------------------------------
----------------------------------------------------------12-15p12-15p12------
----------------------------------12----12-14----12-14b16---------------------
----------------12-14----12-12h14----14-------14------------------------------
-12----10-12/14-------14------------------------------------------------------
----12------------------------------------------------------------------------


-------------15-17b19-17b19-17b19-17p15----15---------------------------------
-------15/17----------------------------17----17-15-12-----12-----------------
-14/16--------------------------------------------------15----15p14-12--------
-----------------------------------------------------------------------14-12--
------------------------------------------------------------------------------
------------------------------------------------------------------------------


------------------------------------------------------------------------------
------------------------------------------------------------------------------
-12-12\-----------------------------------------------------------------------
------------------------------------------------------------------------------
------------------------------------------------------------------------------
------------------------------------------------------------------------------