Date: Thu, 18 Dec 1997 12:45:36 -0600
From: Guy Butler 
Subject: Lynyrd Skynyrd-----Same Old Blues


TABBED BY: GBsniper2@aol.com


Lynyrd Skynyrd---Same Old Blues

 I have been an advid fan of Skynyrd and this song is one of my favorites.
I have tried to put this out as accurately as possible for those to enjoy.
It is based on the 12 bar blues but there are 18 bars. The following is what
I feel is the whole melody of the song.  I am going to number the riffs so
when I put down the melody sections you will understand a little bit on how
to play it when played with the original song.

1. E---------------------------------------------------------------
   B---------------------------------------------------------------
   G-----2-----------2---------------------------------------------
   D-----------5----------------2----------------------------------
   A--0-----0-----0-----3----5-----3---0---------------------------
   E---------------------------------------------------------------

2. E---------------------------------------------------------------
   B-----3-----------3---------------------------------------------
   G-----------5----------------2----------------------------------
   D--0-----0-----0-----3----5-----3----0--------------------------
   A---------------------------------------------------------------
   E---------------------------------------------------------------

 CHORDS STRUMMED ONCE EACH
                 G             F
3. E-------------3-------------1-----------------------------------
   B-------------0-------------1-----------------------------------
   G-------------0-------------2-----------------------------------
   D-------------0-------------3-----------------------------------
   A-------------2-------------3-----------------------------------
   E-------------3-------------1-----------------------------------

4. E---------------------------------------------------------------
   B---------------------------------------------------------------
   G-----2-----------2-----------2---------------------------------
   D-----------5---------------------------------------------------
   A--0-----0-----0-----3----5-------------------------------------
   E---------------------------------3-----------------------------

Play the following melody in sections as I have numbered each melody in each
phrase. You will be able to learn the song.
  112121314   112121314   112121314   112121314   1111221131

  112121311   112121314   1121212112121111111