From: "frederic briere" 
Subject: l/lynyrd_skynyrd/double_trouble.tab
Date: Fri, 24 May 2002 14:32:24 -0400

Artist : Lynyrd Skynyrd
Album : Gimme back my bullets
Song : Double Trouble
Tabbed be: Frederic Briere
Ilie_cobra@hotmail.com


h - hammer on
p - pull off
b - bend string up
r - release bend
/ - slide up
\ - slide down
v - vibrato
t - tap (with strumming hand)
x - muted, struck string



Very Simple. Put a lot of palm mute in it or it will not sound like the 
song.

A-riff

E----------------------------------------------------------
B----------------------------------------------------------
G-----2--------0-------5v-----2v---------------------------
D--------2-------2----------------2-----2------------------
A--0--------0-------0------0---------3-----0---------------
E----------------------------------------------------------

E----------------------------------------------------------
B----------------------------------------------------------
G------2---------0--------2-------0-0h2p0h2p0h2v-----------
D---------2---------2--------------------------------------
A---0--------0---------0-----------------------------------
E----------------------------------------------------------


D Riff

E---------------------------1------------------------------
B--------------3------1----------3v------------------------
G----------------2------2------------2---2-----------------
D-----------0------0------3----0-------3-------------------
A----0-3-4-------------------------------------------------
E----------------------------------------------------------

E-----------------1----------------------------------------
B-----3-----1---------3v-----------------------------------
G-------2-----2-----------2---2----------------------------
D---0-----0-----3---0-------3------------------------------
A----------------------------------------------------------
E----------------------------------------------------------



E-riff


E----------------------------------------------------------
B----------------------------------------------------------
G----------------------------------------------------------
D----2-----0-----5v----2v----------------------------------
A------2-----2-------------2-----2-------------------------
E--0-----0-----0-----0--------3----------------------------



IT's a blues progression

A D A E D A

There are variations at places but it is quite simple to follow

This is the pass before chorus (before going in D)

E----------------------------------------------------------
B----------------------------------------------------------
G----------------------------------------------------------
D------------------0---------------------------------------
A---0----3----4--------------------------------------------
E----------------------------------------------------------



Repeat this at the end


   Double  Trouble...
E----------------------------------------------------------
B----------------------------------------------------------
G-------2-------2------------------------------------------
D-------2-------2------------------------------------------
A---3---0-------0------------------------------------------
E------------3---------------------------------------------

That's it.