From: "frederic briere" 
Subject: l/lynyrd_skynyrd/dont_ask_me_no_questions.tab
Date: Wed, 29 May 2002 15:05:09 -0400

Artist : lynyrd skynyd
Song : Don't ask me no questions
Album : second helping
Tabbed by : Frederic Briere
Ilie_cobra@hotmail.com

h - hammer on
p - pull off
b - bend string up
bb- 1 1/2 tone bend
H - hold bend
r - release bend
/ - slides
~ - vibrato
t - right hand tap
x - play 'note' with heavy damping
* - harmonic



Main Riff (repeat twice) You can play it in power chords or not.


             G               D              C

E------------3---------------3/----------------------------
B------------0---------------2/-------------1--------------
G------------0----(2--6--7)--3/--(2--4--5)--0----5/3-------
D---(2-4-5)--0----(2--6--7)--0---(2--4--5)--2----5/3-------
A---(2-4-5)--2-----0--4--5--------0--2--3---3----3/1-------
E----0-2-3---3---------------------------------------------


     G

E----3-----------------------------------------------------
B----0-----------------------------------------------------
G----0-----------------------------------------------------
D----0-----------------------------------------------------
A----2-----------------------------------------------------
E----3-----------------------------------------------------


Guitar (using a slide, I tabbed it for non-slide, it sucks this way, don't 
do like me, buy a slide)


      C            D               G

E----------------------------------------------------------
B----/13--13--14--/15~-------------------------------------
G--------------------------14r-14--12~---------------------
D-----------------------------------------8r-8p7--5~-------
A----------------------------------------------------------
E----------------------------------------------------------


Verse

C                     D                G

Well everytime that I come...
C                             D              G

It seems that all the friends...


C                       D            Em                     C

Well, I appreciate your feelings and I don't want to .... .. ..


(main riff)
G                       D                C                   G

But I don't ask you about your business, don't ask me ..... ....


Chorus : (main riff)


Solo :

E----------------------------------------------------------
B----------------------------------------------------------
G------17---17---15---17--17~----17-15-17-17b--15~---------
D---------------------------------------------------17-15--
A----------------------------------------------------------
E----------------------------------------------------------

E----------------------------------------------------------
B----------------------------------------------------------
G----15----------------------------------------------------
D--------17~------17-15-------------/17~-----17-15---------
A-----------------------17/15-13-------------------17/15---
E--------------------------------15------------------------

E----------------------------------------------------------
B---------------------------------------------------11-----
G-----------------------------------------------/12--------
D------------------------------12-15-----------------------
A----13------15---15--13---15b-------13b-------------------
E--------15-------------------------------15-13------------

E----------------------------------------------------------
B----------------------------------------------------------
G----10-12~----12bb--12H-12H-12H--12H-12H-12Hrp10--12~-----
D----------------------------------------------------------
A----------------------------------------------------------
E----------------------------------------------------------

E------------------------6-7-8-10-6b-------------6~/-------
B--------------11b~----8-------------8~----8-6-8-----------
G----12-10-12----------------------------------------------
D----------------------------------------------------------
A----------------------------------------------------------
E----------------------------------------------------------

E------15----------------------------18b--18---------------
B---------18----------------------------------15~----------
G--------------15br-13-15~----15-13------------------------
D----------------------------------------------------------
A----------------------------------------------------------
E----------------------------------------------------------

E----------------------15~--------------------15~----------
B-------15-----------------------15------------------------
G----17------15-16-17---------17-----15-16-17--------------
D----------------------------------------------------------
A----------------------------------------------------------
E----------------------------------------------------------

E-----18b-18H-18H-18H-18H-18H-15~--------------------------
B----------------------------------------------------------
G----------------------------------------------------------
D----------------------------------------------------------
A----------------------------------------------------------
E----------------------------------------------------------

That's it