#----------------------------------PLEASE NOTE---------------------------------#
#This file is the author's own work and represents their interpretation of the #
#song. You may only use this file for private study, scholarship, or research. #
#------------------------------------------------------------------------------##


From: bobz@crl.com (Robert Zawalski)

Out on the Tiles (Zeppelin)
===============================

Here is a tab of how I play it.  (I think Jimmy tunes own a semitone
on album)

E:-------------------------------------------------------------
B:-------------------------------------------------------------
G:-------------------------------------------------------------
D:--6-6-6-6-6-6-6-6--5-5-5-5-5-5-5-5--8-8---8-8---8-8---8-8----
A:-------------------------------------------------------------
E:--4-4-4-4-4-4-4-4--3-3-3-3-3-3-3-3--6-5b6-6-5b6-6-5b6-6-5b6--
(I kinda doubt Jimmy is playing anything on the D string, but it
thickens it up so..)

E:-----------------------------------------------
B:-----------------------------------------------
G:--------0--------------------------------------
D:------0-----3-2-3-2-3-2-3-2--------------------
A:----2-------------------------3-1-3-1-3-4-3-1--
E:--3--------------------------------------------

I sometimes play this instead..(just for flavour >=-)

E:-----------------------------------------------
B:-----------------------------------------------
G:--------0--------------------------------------
D:------0----------------------------------------
A:----2-------------------------3-1-3-1-3-4-3-1--
E:--3--------1-0-1-0-1-0-1-0---------------------

He plays this as the little bridge.. (listen to the record..)
E:-------------------------------------------------------------
B:-------------------------------------------------------------
G:--------0----------------------------------------------------
D:------0-----3-2-3-2-3-2-3-2----------------------------------
A:----2------------------------3-1-3-1-3-1-3-1--0-1-0-1-0-1-0--
E:--3----------------------------------------------------------

E:-------------
B:-------------
G:-------------
D:--5-3-5-3-5--
A:--5-3-5-3-5--
E:--3-1-3-1-3--

Chorus:

F  Bb Bb F x2  Then do intro again.

Little ending thing:

E:---------------------------------------------------------------------
B:--10-10-10-10/13-13--10-10-10-10/13-13--10-10-10-10/13-13--10-15-13--
G:--10-10-10-10/13-13--10-10-10-10/13-13--10-10-10-10/13-13--10-15-13--
D:--10-10-10-10/13-13--10-10-10-10/13-13--10-10-10-10/13-13--10-15-13--
A:---------------------------------------------------------------------
E:---------------------------------------------------------------------
I think Pagey plays this with a slide on reconrd, but eighther way is
fine..


Dustin Zawalski (son of Robert..)

=======================================

Out on the Tiles:  main riff

------------------------
------------------------
------------------------
-----------------4------
-------------4----------
--2--s--5---------------


--------------------------------------------------------
--------------------------------------------------------
--------------------------------------------------------
--1--2--1--2--1--2--1-----------------------------------
------------------------4---0---2--0--2--0--2--3--2--0--
--------------------------------------------------------

back to first riff.